VGJam Tabs Mega Man II
Mega Man II
"Quintet's theme" - Guitar tab
Platform(s):Game Boy
Tabbed by:Deezer
Last modified:1999-09-09
Print it:Original file (.TXT)
Hear it:MIDI file
#----------------------------------PLEASE NOTE---------------------------------#
#This file is the author's own work and represents their interpretation of the #
#song. You may only use this file for private study, scholarship, or research. #
#------------------------------------------------------------------------------#


Mega Man II (Game Boy)
"Quintet's theme"


Originally composed by: ?
------------------------------------------------------------------------------
Tabbed by: Deezer (deezer@usa.net)
For http://www.kontek.net/vgjam/
------------------------------------------------------------------------------


Standard Tuning - (low to high) EADGBe


---------------------------------------------------------
-------------1---------------------1---------------------
--3------2-3--------3-2-3------2-3----3--2--0---------3--
-----------------------------------------------1---------
---------------------------------------------------------
---------------------------------------------------------

-----------------------
-----------------------
--3--------------0--2--
-----------1--3--------
-----------------------
-----------------------

Repeat from beginning.


Last revised: 9/9/99

VGJam Tabs Mega Man II - "Quintet's theme"
Tabs database last modified Tuesday, 01-Nov-2016 19:14:53 UTC.
Copyright © 1999 - 2016 VideoGameJam.com. All rights reserved.