VGJam Tabs Super Mario Bros. Deluxe
Super Mario Bros. Deluxe
"You vs. Boo level select" - Guitar tab
Platform(s):Game Boy
Tabbed by:Deezer
Last modified:2000-02-04
Print it:Original file (.TXT)
#----------------------------------PLEASE NOTE---------------------------------#
#This file is the author's own work and represents their interpretation of the #
#song. You may only use this file for private study, scholarship, or research. #
#------------------------------------------------------------------------------#

Super Mario Bros. Deluxe (Game Boy Color)
"You Vs Boo level select screen"

Originally composed by: ?
------------------------------------------------------------------------------
Tabbed by: Deezer (deezer AT videogamejam DOT com)
For http://www.videogamejam.com
------------------------------------------------------------------------------


Symbols used:
 ~ = let ring / slight vibrato


Standard Tuning - (low to high) EADGBe


Lead whistle thing:
===================

--20------------------15---16---17~~~~~--
--------20-------------------------------
-----------------------------------------
-----------------------------------------
-----------------------------------------
-----------------------------------------

--22------------------17---16---15~~~~~--
--------22-------------------------------
-----------------------------------------
-----------------------------------------
-----------------------------------------
-----------------------------------------


Background riff:
================

|--------------------------||-----------------------------|
|--------------------------||-----------------------------|
|--10-10-9----10-10-9-5h9--||--12-12-11----12-12-11-7h11--|
|--------------------------||-----------------------------|
|--------------------------||-----------------------------|
|--------------------------||-----------------------------|
                         x4                             x4

Not too sure about those quick hammer-ons, but they are probably correct;
tabbed off of a .WAV file with compromised quality.


Last revised: 2/4/2000

VGJam Tabs Super Mario Bros. Deluxe - "You vs. Boo level select"
Tabs database last modified Tuesday, 01-Nov-2016 19:14:53 UTC.
Copyright © 1999 - 2016 VideoGameJam.com. All rights reserved.