VGJam Tabs Super Mario Land
Super Mario Land
"Chai Kingdom" - Guitar tab
Platform(s):Game Boy
Composed by:Hirokazu "Hip" Tanaka
Tabbed by:Deezer
Last modified:2002-06-17
Print it:Original file (.TXT)
Hear it:MIDI file
#----------------------------------PLEASE NOTE---------------------------------#
#This file is the author's own work and represents their interpretation of the #
#song. You may only use this file for private study, scholarship, or research. #
#------------------------------------------------------------------------------#


Super Mario Land (Game Boy)
"Chai Kingdom"

Originally composed by: Hirokazu "Hip" Tanaka
------------------------------------------------------------------------------
Tabbed by: Deezer (deezer AT videogamejam DOT com)
For http://www.videogamejam.com
------------------------------------------------------------------------------


---------12--15----12----------12-------------------
-15----------------------15--------15--12-----------
---------------------------------------------14--12-
----------------------------------------------------
----------------------------------------------------
----------------------------------------------------

---------12--15----12------12-----------------------
-15--------------------15---------------------------
----------------------------------------------------
----------------------------------------------------
----------------------------------------------------
----------------------------------------------------
                            ^ with Fill (see bottom)

---------12--15----12----------12-------------------
-15----------------------15--------15--12-----------
---------------------------------------------14--12-
----------------------------------------------------
----------------------------------------------------
----------------------------------------------------

----------------------------------------------------
--------12------------------------------------------
-14---------14--12----------------------------------
--------------------14--12--14----------------------
----------------------------------------------------
----------------------------------------------------

Repeat from beginning.
Then:

-----------------------12-----------------------------------
---------12--15----15-----15-12----15--12------12-----------
-14----------------------------------------14-----14-12-----
---------------------------------------------------------14-
------------------------------------------------------------
------------------------------------------------------------

------------------------------------------------------------
-15--------------12--15-------------------------------------
------------------------------------------------------------
------------------------------------------------------------
------------------------------------------------------------
------------------------------------------------------------

-12------15--17----15----12-----------------------
---------------------------------15--12-----------
-------------------------------------------14--12-
--------------------------------------------------
--------------------------------------------------
--------------------------------------------------

-------------------12----15-----------------------
---------12--15-----------------------------------
-14-----------------------------------------------
--------------------------------------------------
--------------------------------------------------
--------------------------------------------------

Fill:
=====

-15h17p15--12h15p12--10h12p10-----------
-------------------------------10h12p10-
----------------------------------------
----------------------------------------
----------------------------------------
----------------------------------------


Last modified: 06/17/2002

VGJam Tabs Super Mario Land - "Chai Kingdom"
Tabs database last modified Tuesday, 01-Nov-2016 19:14:53 UTC.
Copyright © 1999 - 2016 VideoGameJam.com. All rights reserved.