VGJam Tabs Super Mario Land
Super Mario Land
"Ending theme" - Guitar tab
Platform(s):Game Boy
Composed by:Hirokazu "Hip" Tanaka
Tabbed by:Deezer
Last modified:2009-09-02
Date added:2009-09-05
Print it:Original file (.TXT)
Hear it:MIDI file
#----------------------------------PLEASE NOTE---------------------------------#
#This file is the author's own work and represents their interpretation of the #
#song. You may only use this file for private study, scholarship, or research. #
#------------------------------------------------------------------------------#

Super Mario Land (Game Boy)
"Ending theme"

Originally composed by: Hirokazu "Hip" Tanaka
------------------------------------------------------------------------------
Tabbed by: Deezer (deezer AT videogamejam DOT com)
For http://www.videogamejam.com
------------------------------------------------------------------------------


Standard tuning: (low to high) EADGBe


=========
Guitar 1:
=========

    Intro:

||--9---------------9----|--11----------------11----|
||------------10---------|--------------12----------|
||-------9---------------|--------11----------------|
||-----------------------|--------------------------|
||-----------------------|--------------------------|
||-----------------------|--------------------------|

--12----------------12----|--14----------------14----|
--------------13----------|--------------15----------|
--------12----------------|--------14----------------|
--------------------------|--------------------------|
--------------------------|--------------------------|
--------------------------|--------------------------|

--16----------------16----|--17----------------17----|
--------------17----------|--------------17----------|
--------16----------------|--------17----------------|
--------------------------|--------------------------|
--------------------------|--------------------------|
--------------------------|--------------------------|

--16----------------16----|--17----------------17----|
--------------17----------|--------------17----------|
--------16----------------|--------17----------------|
--------------------------|--------------------------|
--------------------------|--------------------------|
--------------------------|--------------------------|

  Part A:

--16----------------------|------------17-----16----------|--------------------|
-----------17-------------|-----19----------------19--17--|--------------------|
--------------------16----|-------------------------------|--------------------|
--------------------------|-------------------------------|--------------------|
--------------------------|-------------------------------|--------------------|
--------------------------|-------------------------------|--------------------|

-------------------|--16----------------------|---------------------------|
-------------------|-----------17-------------|--17-----------16--17--19--|
-------------------|--------------------16----|---------------------------|
-------------------|--------------------------|---------------------------|
-------------------|--------------------------|---------------------------|
-------------------|--------------------------|---------------------------|

-----------------------|---------------------|--16----------------------|
-----------------------|--16-----------------|-----------17-------------|
-------------18--------|---------------------|--------------------16----|
-----------------------|---------------------|--------------------------|
-----------------------|---------------------|--------------------------|
-----------------------|---------------------|--------------------------|

------------17-----16----------|--------------------|-------------------|
-----19----------------19--17--|--------------------|-------------------|
-------------------------------|--------------------|-------------------|
-------------------------------|--------------------|-------------------|
-------------------------------|--------------------|-------------------|
-------------------------------|--------------------|-------------------|

--16----------------------|---------------------------|-----------------------|
-----------17-------------|--17-----------16--17--19--|-----------------------|
--------------------16----|---------------------------|-------------18--------|
--------------------------|---------------------------|-----------------------|
--------------------------|---------------------------|-----------------------|
--------------------------|---------------------------|-----------------------|

                        Part B:

---------------------|------------------------|----------------------|
--16-----------------|--17------------16--17--|--19------------------|
---------------------|------------------------|------------16--------|
---------------------|------------------------|----------------------|
---------------------|------------------------|----------------------|
---------------------|------------------------|----------------------|

--16----------------16--|--17----------------------|------------------------|
----------------19------|--------------17----16----|--17------------16--17--|
------------------------|--------18----------------|------------------------|
------------------------|--------------------------|------------------------|
------------------------|--------------------------|------------------------|
------------------------|--------------------------|------------------------|

----------------------|--16----------------16--|--19----------------------|
--19------------------|----------------19------|--------------17----20----|
------------16--------|------------------------|--------17----------------|
----------------------|------------------------|--------------------------|
----------------------|------------------------|--------------------------|
----------------------|------------------------|--------------------------|

--17--------20--------|----------------------|----------------------||
----------------------|--21------------------|--19------------------||
----------------------|----------------------|----------------------||
----------------------|----------------------|----------------------||
----------------------|----------------------|----------------------||
----------------------|----------------------|----------------------||

Repeat from Part A.


=========
Guitar 2:
=========

   Intro:

||------------------------------|------------------------------|
||--------10--10--------10--10--|--------10--10--------10--10--|
||------------------------------|------------------------------|
||--7--7----------7--7----------|--7--7----------7--7----------|
||------------------------------|------------------------------|
||------------------------------|------------------------------|

------------------------------|------------------------------|
--------10--10--------10--10--|--------10--10--------10--10--|
------------------------------|------------------------------|
--7--7----------7--7----------|--7--7----------7--7----------|
------------------------------|------------------------------|
------------------------------|------------------------------|

--------------------------|--------------------------|
--------------------------|--------------------------|
--------9--9--------9--9--|--------9--9--------9--9--|
--------------------------|--------------------------|
--7--7--------7--7--------|--7--7--------7--7--------|
--------------------------|--------------------------|

                                                        Part A:
							
--------------------------|--------------------------|----------------------|
--------------------------|--------------------------|----------------------|
--------9--9--------9--9--|--------9--9--------9--9--|--9----9----9----9----|
--------------------------|--------------------------|----------------------|
--7--7--------7--7--------|--7--7--------7--7--------|----------------------|
--------------------------|--------------------------|----------------------|

----------------------|----------------------|----------------------|
----------------------|----------------------|----------------------|
--8----8----8----8----|--7----7----7----7----|--6----6----6----6----|
----------------------|----------------------|----------------------|
----------------------|----------------------|----------------------|
----------------------|----------------------|----------------------|

----------------------|----------------------|----------------------|
----------------------|----------------------|----------------------|
----------------------|----------------------|----------------------|
--7----7----7----7----|--6----6----6----6----|--4----4----4----4----|
----------------------|----------------------|----------------------|
----------------------|----------------------|----------------------|

----------------------|----------------------|----------------------|
----------------------|----------------------|----------------------|
--4----4----4----4----|--9----9----9----9----|--8----8----8----8----|
----------------------|----------------------|----------------------|
----------------------|----------------------|----------------------|
----------------------|----------------------|----------------------|

----------------------|----------------------|----------------------|
----------------------|----------------------|----------------------|
--7----7----7----7----|--6----6----6----6----|----------------------|
----------------------|----------------------|--7----7----7----7----|
----------------------|----------------------|----------------------|
----------------------|----------------------|----------------------|

----------------------|----------------------|----------------------|
----------------------|----------------------|----------------------|
----------------------|----------------------|--4----4----4----4----|
--6----6----6----6----|--4----4----4----4----|----------------------|
----------------------|----------------------|----------------------|
----------------------|----------------------|----------------------|

  Part B:

--------------------------|--------------------------|
--------------------------|--------------------------|
--------------------------|--------------------------|
--------7--7--------7--7--|--------7--7--------7--7--|
--------------------------|--------------------------|
--5--5--------5--5--------|--5--5--------5--5--------|

--------------------------|--------------------------|
--------------------------|--------------------------|
--------------------------|--------------------------|
--------6--6--------6--6--|--------4--4--------9--9--|
--------------------------|--------------------------|
--4--4--------4--4--------|--2--2--------7--7--------|

--------------------------|--------------------------|
--------------------------|--------------------------|
--------------------------|--------------------------|
--------7--7--------7--7--|--------7--7--------7--7--|
--------------------------|--------------------------|
--5--5--------5--5--------|--5--5--------5--5--------|

--------------------------|--------------------------|
--------------------------|--------------------------|
--------------------------|--------------------------|
--------6--6--------6--6--|--------5--5--------5--5--|
--------------------------|--------------------------|
--4--4--------4--4--------|--3--3--------3--3--------|

--------------------------|--------------------------|
--------------------------|--------------------------|
--------------------------|--------------------------|
--------5--5--------5--5--|-----------6-----------6--|
--------------------------|--------7-----------7-----|
--3--3--------3--3--------|--7--7--------7--7--------|

--------------------------||
--------------------------||
--------------------------||
--------------------------||
--------6--9--------6--9--||
--7--7--------7--7--------||

Repeat from Part A.


Last modified: 09/02/2009

VGJam Tabs Super Mario Land - "Ending theme"
Tabs database last modified Tuesday, 01-Nov-2016 19:14:53 UTC.
Copyright © 1999 - 2016 VideoGameJam.com. All rights reserved.