VGJam Tabs Tetris
Tetris
"Music A" - Guitar tab
Platform(s):Game Boy
Tabbed by:AlvinsJockStrap
Last modified:2002-06-02
Print it:Original file (.TXT)
Hear it:MIDI file
The Tetris Theme Song
Tabbed by:Chris email: AlvinsJockStrap@aol.com

E|-12-------------------------12----------------12-----------|
B|----12-13-15-13-12-------13----15-13-12-13-15----13--------|
G|-------------------14-14----------------------------14-14--|
D|-----------------------------------------------------------|
A|-----------------------------------------------------------|
E|-----------------------------------------------------------|

E|----13-17-15-13-12----12-------------------12------------|
B|-15----------------13----15-13-12-12-13-15----13---------|
G|-------------------------------------------------14-14---|
D|---------------------------------------------------------|
A|---------------------------------------------------------|
E|---------------------------------------------------------|

E|-12-------------------------12----------------12-----------|
B|----12-13-15-13-12-------13----15-13-12-13-15----13--------|
G|-------------------14-14----------------------------14-14--|
D|-----------------------------------------------------------|
A|-----------------------------------------------------------|
E|-----------------------------------------------------------|

E|----13-17-15-13-12----12-------------------12------------|
B|-15----------------13----15-13-12-12-13-15----13---------|
G|-------------------------------------------------14-14---|
D|---------------------------------------------------------|
A|---------------------------------------------------------|
E|---------------------------------------------------------|

E|-------------------------|-------------------------|
B|-------------------------|-------------------------|
G|-------------------------|-------------------14-13-|
D|-14----12----------------|-14----12-------14-------|
A|----15----14-15-12-11-14-|----15----14-15----------|
E|-------------------------|-------------------------|

E|-12-------------------------12----------------12-----------|
B|----12-13-15-13-12-------13----15-13-12-13-15----13--------|
G|-------------------14-14----------------------------14-14--|
D|-----------------------------------------------------------|
A|-----------------------------------------------------------|
E|-----------------------------------------------------------|

E|----13-17-15-13-12----12-------------------12------------|
B|-15----------------13----15-13-12-12-13-15----13---------|
G|-------------------------------------------------14-14---|
D|---------------------------------------------------------|
A|---------------------------------------------------------|
E|---------------------------------------------------------|

E|-12-------------------------12----------------12-----------|
B|----12-13-15-13-12-------13----15-13-12-13-15----13--------|
G|-------------------14-14----------------------------14-14--|
D|-----------------------------------------------------------|
A|-----------------------------------------------------------|
E|-----------------------------------------------------------|

E|----13-17-15-13-12----12-------------------12------------|
B|-15----------------13----15-13-12-12-13-15----13---------|
G|-------------------------------------------------14-14---|
D|---------------------------------------------------------|
A|---------------------------------------------------------|
E|---------------------------------------------------------|
VGJam Tabs Tetris - "Music A"
Tabs database last modified Tuesday, 01-Nov-2016 19:14:53 UTC.
Copyright © 1999 - 2016 VideoGameJam.com. All rights reserved.