VGJam Tabs 1080° Snowboarding
1080° Snowboarding
"Intro" - Guitar, Bass tab
Platform(s):Nintendo 64
Tabbed by:Brian Wroten
Last modified:2000-05-19
Print it:Original file (.TXT)
Hear it:MIDI file
I'm suprised know one has tabbed this yet. The song is very easy and any
rock/metal guitarists will find it rather easy. Its all petatonic
minor/minor progression. If you have any questions or comments e-mail me,
Brian Wroten at zombieluv138@hotmail.com


This is 98 to 100% percent correct. =)


Intro


D-4-------7----------2~~~~
A-4-------7----------2~~~~
E-2-------5----------0----


Verse


D-4-7-4-7-4-7-4-7--7-5-4-
A-4-7-4-7-4-7-4-7--7-5-4-
E-2-5-2-5-2-5-2-5--5-3-2-


Bass (entire song except intro)


E-X--X--X--X


(that's it...the worst bass line ever, the band that wrote this should be
ashamed)


Chorus (don't play anything the second time for the chorus)


D------4----------------7--2-
A------4----------------7--2-
E------2----------------5--0-


2nd Verse


D---4----4----4----4--7\5-
A---4----4----4----4--7\5-
E-0h2--0h2--0h2--0h2--5\3-


Bridge


D-4---7--7--9---4---7--9-7-5-
A-4---7--7--9---4---7--9-7-5-
E-2---5--5--7---2---5--7-5-3-


D-2---------5-4-5--2---------5\4-5--2-
A-2---------5-4-5--2---------5\4-5--2-
E-0---------3-2-3--0---------3\2-3--0-


2nd Chorus


Repeat everything.

VGJam Tabs 1080° Snowboarding - "Intro"
Tabs database last modified Tuesday, 01-Nov-2016 19:14:53 UTC.
Copyright © 1999 - 2016 VideoGameJam.com. All rights reserved.