VGJam Tabs Banjo-Kazooie
Banjo-Kazooie
"Clanker's Cavern" - Guitar tab
Platform(s):Nintendo 64
Tabbed by:Rhys Cole
Last modified:2001-12-21
Print it:Original file (.TXT)
Hear it:MIDI file
Game: Banjo-Kazooie
Title: Clanker's Cavern
Album: Don't know if there is one...
Tabbed by: Rhys Cole
E-mail: the_manic27@hotmail.com

Please know this tune quite well, as I am not very good at indicating the 

rhythm.

PART 1						    x
---------------------------------------------------------------------------
-------------------------1-------------------------------------------------
---0-1-0-------------0-----0-3---1---0-------0--------0-1-0-------------0--
-------------0-1-0-------------3---1---0---3---3----------------0-1-0------
-3-------3-3-------3---------------------3--------2-3-------3-3-------3----
---------------------------------------------------------------------------



-----------------------1------2/8--
---------0-1-0-1-3-2-4---2-1-------
-0-0-0-2---------------------------
-----------------------------------
-----------------------------------
-----------------------------------



PART 2
-------------------------------------------------------------
---------------1-------1----------------------------0--------
---2-3-1-----0---0-1-3---3-1-0----0-1-0-------0-------3-1-0--
-4-------4-2--------------------3-------3-1-3---1-4----------
-------------------------------------------------------------
-------------------------------------------------------------



PART 3
-------------------------------------------------------------------------------------0------
--------------------------------------1------------------------------------------4-2---3----
-----2-1-2-----------------2-1-2--1-3---3-1--------2-1-2-----------------2-1-2-3------------
-0-4--------0---2-0----0-4------------------1--0-4--------0---2-0----0-4-----------------0--
--------------3------0--------------------------------------3------0------------------------
--------------------------------------------------------------------------------------------



PART 4
-2-5-6-4-2-1-3-8-3-4-6-8-6-4-3--1-3-4-3-1---1-3-----3-1------
------------------------------------------4-----4-2-----4-3--
-------------------------------------------------------------
-------------------------------------------------------------
-------------------------------------------------------------
-------------------------------------------------------------

Order to play

PART 1
PART 2
PART 1 - from the x
PART 1 - all
PART 3
PART 1
PART 4
PART 1 - fade out or repeat

VGJam Tabs Banjo-Kazooie - "Clanker's Cavern"
Tabs database last modified Tuesday, 01-Nov-2016 19:14:53 UTC.
Copyright © 1999 - 2016 VideoGameJam.com. All rights reserved.