VGJam Tabs The Legend of Zelda: The Wind Waker
The Legend of Zelda: The Wind Waker
"Earth God's Lyric" - Guitar tab
Platform(s):GameCube
Composed by:Kenta Nagata, Hajime Wakai, Toru Minegishi, Koji Kondo
Soundtrack:The Legend of Zelda ~Takt of Wind~ Original Sound Tracks [SCDC-00250~251] (track D2-26)
Tabbed by:Deezer
Last modified:2005-12-28
Print it:Original file (.TXT)
Hear it:MIDI file
#----------------------------------PLEASE NOTE---------------------------------#
#This file is the author's own work and represents their interpretation of the #
#song. You may only use this file for private study, scholarship, or research. #
#------------------------------------------------------------------------------#

The Legend of Zelda: The Wind Waker (Nintendo GameCube)
"Earth God's Lyric"

Originally composed by: Kenta Nagata, Hajime Wakai, Toru Minegishi, Koji Kondo
------------------------------------------------------------------------------
Tabbed by: Deezer (deezer AT videogamejam DOT com)
For http://www.videogamejam.com
------------------------------------------------------------------------------


Standard tuning: (low to high) EADGBe

 
   ------
   ------
   -14---
   ------
   ------
   ------

G1|----------14----------------------------------------------------
U |-------15------17-15---14-15-----------14----15----14-----------
I |-14----------------------------16---------14----16------14------
T |----------------------------------17-----------------------17---
A |----------------------------------------------------------------
R |----------------------------------------------------------------
  |
G2|-5------------------------5------------------------5------------
U |-7------------------------8------------------------3------------
I |-7------------------------7------------------------6------------
T |----------------------------------------------------------------
A |----------------------------------------------------------------
R |----------------------------------------------------------------


G1|--------------------14------------
U |-15------14-15---17----15-17------
I |----16-----------------------14---
T |----------------------------------
A |----------------------------------
R |----------------------------------
  |
G2|------------5---------------------
U |------------7---------------------
I |------------7---------------------
T |----------------------------------
A |----------------------------------
R |----------------------------------


G1|----------14----------------------------------------------------
U |-------15------17-15---14-15-----------14----15----14---15-17---
I |-14----------------------------16---------14----16--------------
T |----------------------------------17----------------------------
A |----------------------------------------------------------------
R |----------------------------------------------------------------
  |
G2|-5------------------------5------------------------5------------
U |-7------------------------8------------------------3------------
I |-7------------------------7------------------------6------------
T |----------------------------------------------------------------
A |----------------------------------------------------------------
R |----------------------------------------------------------------


G1|-14-15--------------------
U |-------17-14-15---15------
I |--------------------------
T |--------------------------
A |--------------------------
R |--------------------------
  |
G2|----9-------------5-------
U |----8-------------7-------
I |----7-------------7-------
T |--------------------------
A |--------------------------
R |--------------------------


Last modified: 12/28/2005

VGJam Tabs The Legend of Zelda: The Wind Waker - "Earth God's Lyric"
Tabs database last modified Tuesday, 01-Nov-2016 19:14:53 UTC.
Copyright © 1999 - 2016 VideoGameJam.com. All rights reserved.