VGJam Tabs Banjo-Tooie
Banjo-Tooie
"Glitter Gulch Mine" - Guitar tab
Platform(s):Nintendo 64
Tabbed by:Rhys Cole
Last modified:2001-12-21
Print it:Original file (.TXT)
Hear it:MIDI file
Game: Banjo-Tooie
Title: Glitter Gulch Mine
Album: I have no idea
Tabbed by: Rhys Cole
E-mail: the_manic27@hotmail.com

Please know this tune quite well, as I am not very good at indicating the 

rhythm.

PART 1
---------------------------------------------------------------------------------------
---------------------------------------------------------------------------------------
-1----------------------1-------------0-1--1----------------------1---------0---0-3-1--
---1-1-3-1-1-3-1-----1----1-1-3-1-1-3--------1-1-3-1-1-3-1-----1----1-1-3-1---3--------
-----------------4-3---------------------------------------4-3-------------------------
---------------------------------------------------------------------------------------



PART 2
--------------------------------------------------------------------------------
-1-------1---1-2-1----1-------------1--1-------1---1-2-1---------1--------------
---1-1-----3-------3----1-1---0-1-3------1-1-----3-------3-1-1-3---1-0-1-3-0-1--
-------1--------------------1----------------1----------------------------------
--------------------------------------------------------------------------------
--------------------------------------------------------------------------------



PART 3
------------------------------------------------------------------------------------
----------------------------------1--------1-2-1-2----------------------------------
-------------------0-1-0--0-0-1-3---1-1--3---------3-------0---------------1-0------
-----0-1-0-----3-3-----------------------------------1-1-3-------------0-1-----4-3--
-3-3-------1-1-------------------------------------------------3-3-3-4--------------
------------------------------------------------------------------------------------



PART 4
-------------------------------------------------------------------------------
-------------------------------------------------------------------------------
---------------1-1-------------------------------------------------------------
-3-3-3-1---1-3------2-3-3-3-1---1------0-1-1-1-------1-4-4--0-1-1-1-------3----
---------4--------------------4---2-2----------4-2-4----------------4-2-4------
----------------------------------------------------------------------------3--



PART 5
-------------------------------------------------------------------
-2-2-2-----2-2-2-----2-2-2-----1--1-1-1-----1-1-1-----1-1-1-----2--
-------3-1-------3-1-------1-3----------3-1-------3-1-------1-3----
-------------------------------------------------------------------
-------------------------------------------------------------------
-------------------------------------------------------------------

Order to play

PART 1
PART 2
PART 3
PART 1
PART 4 x2
PART 5 x2

VGJam Tabs Banjo-Tooie - "Glitter Gulch Mine"
Tabs database last modified Tuesday, 01-Nov-2016 19:14:53 UTC.
Copyright © 1999 - 2016 VideoGameJam.com. All rights reserved.