VGJam Tabs Blast Corps
Blast Corps
"Angel City" - Guitar tab
Platform(s):Nintendo 64
Tabbed by:Thomas McManus
Last modified:2000-01-22
Print it:Original file (.TXT)
Game: Blast Corps
Song: Angel City
Composed by: Robin Beanland and Grant Kirkhope ?
Tabbed by: Thomas McManus (tom0015@hotmail.com)

This is an awesome song, enjoy! =)

Riff one:
e----------------------------------------
B----------------------------------------
G-2~~~------2~~~---------2-2-2-2-2-2-2-2-
D------1~~~------4~~~~~------------------
A----------------------------------------
E----------------------------------------

Riff two:
e-----------------------------
B-------2-----------2---------
G-2h3p2---3p2-2h3p2---3p2-----
D-----------------------------
A-----------------------------
E-----------------------------

Riff three:
e-----------------------------------------
B-----------------------------------------
G-----------------------------------------
D-----------------------------------------
A-0-7-6--------4----0-7-6--------4--------
E--------5-6-5---5---------5-6-5---5-6-5--

Riff four:
e------------------------------------------------------
B--------------1--1-1-1-1-1----------------------------
G-2--2-2-2-2-2-----------------------------------------
D---------------------------4--4-4-4-4-4-4--4-4-4-4-4--
A------------------------------------------------------
E------------------------------------------------------

Riff five:
e------------------------------------------------------
B------------------------------------------------------
G---------------3~~~-0~~~----------------2~~~~~~~~-----
D-2~~~-3~~~-2-3------------2~~~-3~~~-2-3---------------
A------------------------------------------------------
E------------------------------------------------------

e------------------------------------------------------
B---------------5~~~-1~~~----------------3~~~-5~~~~~~--
G-2~~~-3~~~-2-3------------2~~~-3~~~-2-3---------------
D------------------------------------------------------
A------------------------------------------------------
E------------------------------------------------------

Riff six:
e-------------------------------------------
B-------------------------------------------
G-------------------------------------------
D-------------------------------------------
A-0-0----0-0----0-0----0-0-4\3\2\1\0--------
E-------------------------------------------

Riff seven:
e-5~~~~~~~-8~~~~~~~-2~~~~~~~----------------
B-------------------------------------------
G-------------------------------------------
D-------------------------------------------
A-------------------------------------------
E-------------------------------------------

Riff eight:
e-------------------------------------------
B-------------------------------------------
G-2-2-2-2-2-2-2-2-2-2-2-2-2-2-2-2-----------
D-------------------------------------------
A-------------------------------------------
E-------------------------------------------

Song order:

   Guitar one   |   Guitar two
  Riff one x1   |      -
* Riff two x4   |*     -
Riff three x2  |   Riff two x4
  Riff four x2  |  Riff seven x2
  Riff two x4   |      -
Riff five x1   |   Riff two x8
Riff four x2   |  Riff seven x2
Riff six x3    | 2nd and 3rd times: Riff eight x?
Riff five x1   |   Riff two x8
Riff four x2   |  Riff seven x2

repeat from the *

Note: This song plays in the Angel City and Tempest City
levels in the game.

VGJam Tabs Blast Corps - "Angel City"
Tabs database last modified Tuesday, 01-Nov-2016 19:14:53 UTC.
Copyright © 1999 - 2016 VideoGameJam.com. All rights reserved.