VGJam Tabs Blast Corps
Blast Corps
"Helicopter Fly Thru" - Guitar tab
Platform(s):Nintendo 64
Tabbed by:Thomas McManus
Last modified:2000-01-21
Print it:Original file (.TXT)
Game: Blast Corps
Song: Helicopter Fly Thru
Composed by: Robin Beanland and Grant Kirkhope ?
Tabbed by: Thomas McManus (tom0015@hotmail.com)

I'm surprised that this is the first Blast Corps tab
put up, because Rare specifically had someone do guitar
and MIDI guitar for this game! Where are all you
demolition-minded guitar players? :)


e--------------------------------
B--------------------------------
G--------------------------------
D--------------------------------  x4
A--------------------------------
E-0-0-2-0--0-0-2-3-3-2-2---------

e------------------0-2-0---------
B-4-0-4------4-0-4-------4-0-----
G-------2------------------------
D--------------------------------  x2
A--------------------------------
E--------------------------------

e-----------------1--------------
B-0------3-0--------0------------
G--------------------------------
D--------------------------------  x4
A--------------------------------
E--------------------------------

repeat until you reach your destination. Please keep
all appendages inside helicopter. ;)

VGJam Tabs Blast Corps - "Helicopter Fly Thru"
Tabs database last modified Tuesday, 01-Nov-2016 19:14:53 UTC.
Copyright © 1999 - 2016 VideoGameJam.com. All rights reserved.