VGJam Tabs Castlevania 64
Castlevania 64
"Opening: Bloodlines" - Guitar tab
Platform(s):Nintendo 64
Tabbed by:Dan Priest
Last modified:2001-07-26
Print it:Original file (.TXT)
Castlevania 64 - Opening: Bloodlines
This is track one on the soundtrack, which you can buy at www.gamemusic.com
Tabbed by: Dan Priest (HydraFlesh@aol.com)
This the the part that the violin type thing plays.
|----------8-----------8-----------8----|
|-8--8--6-----8--8--6-----8--8--6-----8-|
|---------------------------------------|
|---------------------------------------|
|---------------------------------------|
|---------------------------------------|

|-15-13----15-13-11-10----------15-13----15-13-11-13-10-|
|-------13-------------11----13-------13----------------|
|-------------------------12----------------------------|
|-------------------------------------------------------|
|-------------------------------------------------------|
|-------------------------------------------------------|

VGJam Tabs Castlevania 64 - "Opening: Bloodlines"
Tabs database last modified Tuesday, 01-Nov-2016 19:14:53 UTC.
Copyright © 1999 - 2016 VideoGameJam.com. All rights reserved.