VGJam Tabs Diddy Kong Racing
Diddy Kong Racing
"Intro" - Guitar tab
Platform(s):Nintendo 64
Tabbed by:Kiwibonga
Last modified:2002-04-09
Print it:Original file (.TXT)
Diddy Kong Racing (N64)
Intro
Tabbed by Kiwibonga

This was tabbed on an unplugged electric guitar in less
than 5 minutes... It's what I remember from the Diddy
Kong Racing intro, which I haven't played in a long time...
But I'm pretty sure it's right...

Basically, start at Part 01, and keep playing Part 02 until
your arms are too tired to go on...

h/: hammer on
\h: hammer off

 Part 01 | Part 02 
---------|------------------------------------------------
---------|------------------------------------------------
---------|--0--2----------0--0-------2--------0--0------2-
---0--2--|---------0--2-----------2-----0--2---------2----
---------|------------------------------------------------
---------|------------------------------------------------


---------------------------------------------------------
---------------------------------------------------------
--0h/2\h0------------------------------------------------
-----------2--0------3----2--0----3----2--0---3-3---2----
---------------------------------------------------------
---------------------------------------------------------

                                                 |
-------------------------------------------------|
-------------------------------------------------|
----------------------------------------0--0-----|
---0-------0--2-2--0--3--2h/3\h2--0--2---------2-|
-------2-----------------------------------------|
-------------------------------------------------|

VGJam Tabs Diddy Kong Racing - "Intro"
Tabs database last modified Tuesday, 01-Nov-2016 19:14:53 UTC.
Copyright © 1999 - 2016 VideoGameJam.com. All rights reserved.