VGJam Tabs Donkey Kong 64
Donkey Kong 64
"DK Rap" - Guitar tab
Platform(s):Nintendo 64
Tabbed by:Deezer
Last modified:2000-06-23
Print it:Original file (.TXT)
#----------------------------------PLEASE NOTE--------------------------------#
#This file is the author's own work and represents their interpretation of the#
#song. You may only use this file for private study, scholarship, or research.#
#-----------------------------------------------------------------------------#

Donkey Kong 64 (Nintendo 64)
"DK Rap"

Originally composed by: ?
------------------------------------------------------------------------------
Tabbed by: Deezer (deezer@usa.net)
For http://www.kontek.net/vgjam/
------------------------------------------------------------------------------

This is the small guitar part, about 25 seconds total. I'm not too sure
about the bends; the effects sound weird, and unnatural. Any help at all
would be appreciated (please? :). It sounds OK the way I have it though.
Oh yeah, and use a lot of distortion. :)

Symbols used:
 b = bend
 \ = slide down
 r = release bend
 p.m. = palm mute

Standard Tuning - (low to high) EADGBe


Intro:
======

"Donkey Kong is here!"
----------------------------
----------------------------
--12----br-br-br-br-br-br\--
----------------------------
----------------------------
----------------------------
       (micro-bends; bend and release each one
        quickly, then slide down after the last release.
        Or, it could be some whammy bar effect.)

"Verse:"
========

  E5                       N.C.
--------------------------------------------12b-12b--
-----------------------------------------------------
---------------------------7-9-9-7-9-----------------
-----------------------------------------------------
--2---------2----------------------------------------
--0---------0----------------------------------------
                                            (micro-bends)

  E5                       N.C.
--------------------------------------------24\\\\\12--
-------------------------------------------------------
---------------------------7-9-9-7-9-------------------
-------------------------------------------------------
--2---------2------------------------------------------
--0---------0------------------------------------------
                                            (slow slide)

Play "Verse" again, then play:

  E5                       N.C.
--------------------------------------------12b-12b--
-----------------------------------------------------
---------------------------7-9-9-7-9-----------------
-----------------------------------------------------
--2---------2----------------------------------------
--0---------0----------------------------------------
                                            (micro-bends)

  E5                       N.C.
-------------------------------------------------------
-------------------------------------------------------
---------------------------7-9-9-7-9-------------------
-------------------------------------------------------
--2---------2------------------------------------------
--0---------0---------------------------7--7\\\\\\\\0--
                                      p.m. (slow slide)



Last revised: 6/23/2000

VGJam Tabs Donkey Kong 64 - "DK Rap"
Tabs database last modified Tuesday, 01-Nov-2016 19:14:53 UTC.
Copyright © 1999 - 2016 VideoGameJam.com. All rights reserved.