VGJam Tabs F-Zero X
F-Zero X
"Big Blue" - Guitar tab
Platform(s):Nintendo 64
Tabbed by:IssacV
Last modified:2001-12-30
Print it:Original file (.TXT)
Big blue from F-zero X, Nintendo 64
Tabbed by IssacV (Issac77995@yahoo.com ) 

I have some audio files up on the site above for 
this one and some others.

Rhythm guitar

-------------------------------------------------------------
-------------------------------------------------------------
-------------------------------------------------------------
-------------------------------------------------------------
---9------9--7-----------7------7--9-------------------------
---7------7--5-----------5------5--7---------Repeat 3 Times--

----------------------------------------
----------------------------------------
----------------------------------------
-------------------------------------4--
---9------9--7-----------7-7----7----4--
---7------7--5-----------5-5----5----2--

------------------------------------------------------------------------
------------------------------------------------------------------------
------------------------------------------------------------------------
------------------------------------------------------------------------
------------------------------------------------------------------------
--7-9-10-7-9-10-7-5-7-9-7-5-7-10-9-5-9-5-7-9-10-9-5-7-9-7-5-5-10-5-9-5--

------------------------------------------------------------------------
------------------------------------------------------------------------
------------------------------------------------------------------------
------------------------------------------------------------------------
---------------------------------5-7-9-7-5---5-----------------------9--
--7-9-5-7-9-7-9-10-9-10-7-9--7-9-----------9---9-7-9-5-7-9-10\9p5--9----

--------------------------------------------------------------------------------
--------------------------------------------------------------------------------
--7------7--9---9----------7-----7--6---6----------7------------9------------8--
--5------5--7---7----------5-----5--4---4----------5------------7------------9--
---------------------------------------------------5------------7------------9--
--------------------------------------------------------------------------------

-----------------------------------------------------------------------
-----------------------------------------------------------------------
-----------------------------------------------------------------------
-----------------------------------------------------------------------
--5-----------------------------------------------4--------------------
--3-----------------------------------------------2-----Repeat to end--

let ring and also let ring
I know there are little fills thrown in the last part (of riff above) but I haven't quite
figured it out yet.
last time before it repeats 
------------------------------------------------------------------------------------------------
------------------------------------------------------------------------------------------------
------------------------------------------------------------------------------------------------
------------------------------------------------------------------------------------------------
--2--------------------------------------------4--------4--7----4--7----------------------------
--3--------------------------------------------2--------2--5----2--5-----starts from beginning--

Lead
------------------------------------------------------------------------
--17b--17-15-14-15~~~~~-14-12-10-12b-r-b---15-14------------------------
------------------------------------------------------------14~~~~~~~~--
------------------------------------------------------------------------
------------------------------------------------------------------------
------------------------------------------------------------------------

------------17-16-------------------------------
--17b--r-b--------17-19~~~~~15-17-19------------
-------------------------------------19b~~~~~~--
------------------------------------------------
------------------------------------------------
------------------------------------------------

--19p15----19p15----19-21-22-21~~~~-17----19p15----19p15----19-22------------------------
------------------------------------------------15-------15-------19---------------------
--------16-------16--------------------------------------------------19b--r-18-19-18-16--
-----------------------------------------------------------------------------------------
-----------------------------------------------------------------------------------------
-----------------------------------------------------------------------------------------

------------------------------------------------------
--15--14-12-------------------------------------------
------------14-12-------------------------------------
------------------16-14--12----12---------------------
----------------------------16----16--12--14~~~~~~~~--
------------------------------------------------------

--14-----------14------------------------------------17-15---------------------------
-----15-12-14b----15b-r-12-pb17-r-17----14-15-17------------17-19-17-15-14-----------
-------------------------------------------------14-------------------------16---14--
-------------------------------------------------------------------------------------
-------------------------------------------------------------------------------------
-------------------------------------------------------------------------------------

---------------------------------------------------------------------12-------------15--14~-
-----12-14-15b---15--19-p17p15\14--17----15----14-------12-14-15-14------15-14--------------
--12----------------------------------------------11-12------------------------14~~---------
--------------------------------------------------------------------------------------------
--------------------------------------------------------------------------------------------
--------------------------------------------------------------------------------------------

------------------------------------------------------------------------------------------------------
-----------------------------------------------------------14-----------------------------------------
--9-11-12--9-11-12--9-11-12--14---11------11-14-11----14-11-------------------------------------------
----------------------------------------------------------------------12------------------------------
------------------------------------------------------------------------------------------------------
------------------------------------------------------------------------------------------------------

--------------------------------------------------------------
-------------------------------------------------14-------14--
--9-11-12--9-11-12--9-11-12--14---9-----11-14-11----14-11-----
--------------------------------------------------------------
--------------------------------------------------------------
--------------------------------------------------------------

-----------------------------------------------------------------------------------------------
------12-15----12-15----12-15----12-15---b----r-----10-14----10-14----10-14----10-14---b----r--
--12--------12-------12-------12-----------------11-------11-------11-------11-----------------
-----------------------------------------------------------------------------------------------
-----------------------------------------------------------------------------------------------
-----------------------------------------------------------------------------------------------

-----------------------------------------------------------------------------17---14--
-------------------------------------------------------------------------17b----------
----------------------------------------------12-14-16-14-16-17-16-17-19--------------
-------------------------------------16-17-19-----------------------------------------
--9-10-12-10-12-14-12-14-16-14-16-19--------------------------------------------------
--------------------------------------------------------------------------------------

-------------------14-17-14-21-17----19b--19~~--------------------------------------------
---------------17b----------------19-----------19----19-20/22-20-19------19-20b~~~~~~!!!--
--pb17-17-pb17------------------------------------19----------------21-b------------------
------------------------------------------------------------------------------------------
------------------------------------------------------------------------------------------
------------------------------------------------------------------------------------------

VGJam Tabs F-Zero X - "Big Blue"
Tabs database last modified Tuesday, 01-Nov-2016 19:14:53 UTC.
Copyright © 1999 - 2016 VideoGameJam.com. All rights reserved.