VGJam Tabs Goemon's Great Adventure
Goemon's Great Adventure
"Underground Paradise" - Guitar tab
Platform(s):Nintendo 64
Tabbed by:Vincent Bouchard
Last modified:2006-10-13
Print it:Original file (.TXT)
Hear it:MIDI file
                              UNDERGROUND PARADISE
                            Goemon's Great Adventure

Transcribed by Vincent Bouchard

Gtr I (E A D G B E) - 'Lead'

    Q=150
   4/4
    Gtr I
     Q.    Q   E  Q     +E   Q   E  Q   Q
||-------------------|---------------------|
||o-10----12-----10--|-(10)-12-----13--12--|
||-------------------|---------------------|
||------------14-----|----------14---------|
||o------------------|---------------------|
||-------------------|---------------------|


   Q.    H     E    Q.    Q   E  E  E
|----------------|--------------------|
|-11-------------|--------------------|
|-------11-------|-----------------11-|
|-------------11-|-14----13--13-14----|
|----------------|--------------------|
|----------------|--------------------|


   Q.    Q   E  Q     +E   Q   E  Q   Q
|------------------|---------------------|
|-10----12-----10--|-(10)-12-----13--12--|
|------------------|---------------------|
|-----------14-----|----------14---------|
|------------------|---------------------|
|------------------|---------------------|


   H     +E   Q   E    +E   E  E  E  +Q    Q
|------------14--12-|-(12)-11----11-(11)------|
|-11----(11)--------|---------14--------------|
|-------------------|---------------------11--|
|-------------------|-------------------------|
|-------------------|-------------------------|
|-------------------|-------------------------|


   E  E E  E  +H        Q  Q   Q   Q
|--------------------|----------------|
|--------------------|----------------|
|-12-11-9-12-(12)----|-----9--11--12--|
|--------------------|-10-------------|
|--------------------|----------------|
|--------------------|----------------|


   Q   E  Q   E  E  E    Q.    H     E
|---------------------|----------------|
|--------12--12-10-12-|-10----------10-|
|-11------------------|-------12-------|
|-----13--------------|----------------|
|---------------------|----------------|
|---------------------|----------------|


   Q.    Q.    +Q      Q.    H    E
|-------------------|---------------|
|-12----12----(12)--|-12----12------|
|-------------------|-------------9-|
|-------------------|---------------|
|-------------------|---------------|
|-------------------|---------------|


   Q.    +Q   E E E    Q.    E  H
|-------------------|----------------|
|-------------------|----------------|
|-11----(11)--9-8-9-|-12----11-11----|
|-------------------|----------------|
|-------------------|----------------|
|-------------------|----------------|


  1.                      2.
  Gtr I
   E  E E E  E E E  E      E  E  E E  E E  E  E
|----------------------||-----------------------|
|---------------------o||-----------------------|
|-12-11-9-8------------||-12-11--------------11-|
|-----------10-9-7-----||-------13-9----9-13----|
|------------------10-o||------------12---------|
|----------------------||-----------------------|


   H     H       Q   E Q  E E  E
|-------------|------------------|
|-------------|------------------|
|-12----11----|-10--12-9----9-11-|
|-------------|-----------9------|
|-------------|------------------|
|-------------|------------------|


   Q   Q   Q   Q     Q   E  Q  E E  E
|-----------------|-------------------|
|-----12--11------|-10----------------|
|-12----------11--|-----11-12----9-11-|
|-----------------|------------9------|
|-----------------|-------------------|
|-----------------|-------------------|


   H     H       Q   E Q  E E  E
|-------------|------------------|
|-------------|------------------|
|-12----11----|-10--12-9----9-11-|
|-------------|-----------9------|
|-------------|------------------|
|-------------|------------------|


   Q   Q   Q   E E    Q.    E  H
|------------------|----------------*|
|-----10-----------|----------------*|
|-12------11-----9-|-12----11-11----*|
|-------------10---|----------------*|
|------------------|----------------*|
|------------------|----------------*|


Duration Legend
---------------
W - whole; H - half; Q - quarter; E - 8th; S - 16th; T - 32nd; X - 64th; a - acciaccatura
+ - note tied to previous; . - note dotted; .. - note double dotted
Uncapitalized letters represent notes that are staccato (1/2 duration)
Irregular groupings are notated above the duration line
Duration letters will always appear directly above the note/fret number it represents the
duration for.  Duration letters with no fret number below them represent rests.  Multi-
bar rests are notated in the form Wxn, where n is the number of bars to rest for.  Low
melody durations appear below the staff

Tablature Legend
----------------
 h   - hammer-on
 p   - pull-off
 b   - bend
 pb  - pre-bend
 r   - bend release (if no number after the r, then release immediately)
 /\  - slide into or out of (from/to "nowhere")
 s   - legato slide
 S   - shift slide
  - natural harmonic
[n]  - artificial harmonic
n(n) - tapped harmonic
 ~   - vibrato
 tr  - trill
 T   - tap
 TP  - trem. picking
 PM  - palm muting
\n/  - tremolo bar dip; n = amount to dip
 \n  - tremolo bar down
 n/  - tremolo bar up
/n\  - tremolo bar inverted dip
 =   - hold bend; also acts as connecting device for hammers/pulls
 <>  - volume swell (louder/softer)
 x   - on rhythm slash represents muted slash
 o   - on rhythm slash represents single note slash

Misc Legend
-----------
 |  - bar
||  - double bar
||o - repeat start
o|| - repeat end
*|  - double bar (ending)
 :  - bar (freetime)
 $  - Segno
 &  - Coda
Tempo markers -  = BPM(8/16=s8/s16), where s8 = swing 8ths, s16 = swing 16ths


***************************************************************************************
* Generated using Power Tab Editor by Brad Larsen - http://powertab.guitarnetwork.org *
***************************************************************************************

VGJam Tabs Goemon's Great Adventure - "Underground Paradise"
Tabs database last modified Tuesday, 01-Nov-2016 19:14:53 UTC.
Copyright © 1999 - 2016 VideoGameJam.com. All rights reserved.