VGJam Tabs GoldenEye 007
GoldenEye 007
"Aztec" - Guitar tab
Platform(s):Nintendo 64
Tabbed by:Lee Robson
Last modified:2007-06-16
Date added:2008-02-24
Print it:Original file (.TXT)
GoldenEye 007 - N64
Aztec

Standard Tuning (E A D G B E)

|-10----------------------------------------11-10-----11-10----11-10-|
|-11-------------------------------------11--------11--------11------|
|-14----------------------------------12-----------------------------|
|--------------------------------------------------------------------|
|--------------------------------------------------------------------|
|--------------------------------------------------------------------|

      Gm                                      D/F# 
|--------------------------------------------------------------------|
|--------------------------------------------------------------------|
|-----12--12-12-12-12-12----------------------11--11-11-11-11-11-----|
|-12----------------------12--------------------------------------12-|
|-----10--10-10-10-10-10-----------------------9---9--9--9--9--9-----|
|-10----------------------10--------------------------------------10-|

  Gm                                          D/F# 
|--------------------------------------------------------------------|
|--------------------------------------------------------------------|
|-12--12-12-12-12-12--------------------------11--11-11-11-11-11-----|
|---------------------12------------------------------------------12-|
|-10--10-10-10-10-10---------------------------9---9--9--9--9--9-----|
|---------------------10------------------------------------------10-|

  Gm                                    D/F#
|----------------------------------11---10---------|
|-11---10----10------------------------------10----|
|---------12----12------------------------------11-|
|--------------------------------------------------|
|--------------------------------------------------|
|--------------------------------------------------|

  Gm                                     D/F#             D/F#+? (2x0242)
|-------------------------------------------------10----------------11-|
|-11---10----10--------------------10----------10----------------10----|
|---------12----12--------------------11----11----------------11-------|
|----------------------------------------12----------------13----------|
|----------------------------------------------------------------------|
|----------------------------------------------------------------------|


|-------------------------------------|
|-------------------------------------|
|-12-----------14--15---------15/17-\-|
|-------------------------------------|
|-10-----------12--13---------13/15-\-|
|-------------------------------------|

|-----------------------------------|
|-----------------------------------|
|-12-----------13----------13----10-|
|-------------------12--------------|
|-10-----------11----------11-----8-|
|-------------------10--------------|


Later part

  Gm                 Eb                   F#
|---------10----------------11-10---------------------------------|
|------11-----------------11-------------------11-13-14--13-11----|
|---12-----------------12--------------------11----------------11-|
|-----------------------------------------------------------------|
|-----------------------------------------------------------------|
|-----------------------------------------------------------------|

Lee Robson LTRobson@gmail.com 16/06/07

VGJam Tabs GoldenEye 007 - "Aztec"
Tabs database last modified Tuesday, 01-Nov-2016 19:14:53 UTC.
Copyright © 1999 - 2016 VideoGameJam.com. All rights reserved.