VGJam Tabs GoldenEye 007
GoldenEye 007
"Cradle" - Guitar tab
Platform(s):Nintendo 64
Tabbed by:Lee Robson
Last modified:2007-06-16
Date added:2008-02-24
Print it:Original file (.TXT)
GoldenEye 007 - N64
Cradle

Standard Tuning (E A D G B E)

|----------------------------------------------------------------------|
|----------------------------------------------------------------------|
|----------------------------------------------------------------------|
|-2----------------2----------------2--------------------2-----------2-|
|-----0-1--------------0-1--------------0-1-0----------------0-1-0-----|
|---3----------------3----------------3-------3------------3-------3---|

|-----------------------------------------------------|
|-----------------------------------------------------|
|-----------------------------------------------------|
|-2-----------2-----------2-----------2-----------2---|
|-----0-1-0-------0-1-0-------0-1-0-------0-1-0-------|
|---3-------3---3-------3---3-------3---3-------3---3-|


|---------------------------------|---------------------------------|
|---------------------------------|---------------------------------|
|---------------------------0-0-2-|---------------------------------|
|---2-2---0-2---2-2---0-2---------|---2-2---0-2---2-2---0-2---------|
|---------------------------------|---------------------------1---1-|
|-0-----0-----0-----0-----0-------|-0-----0-----0-----0-----0---0---|

|---------------------------------|---------------------------------|
|---------------------------------|---------------------------------|
|---------------------------0-0-2-|---------------------------------|
|---2-2---0-2---2-2---0-2---------|---2-2---0-2---2-2---0-2---2---2-|
|---------------------------------|---------------------------------|
|-0-----0-----0-----0-----0-------|-0-----0-----0-----0-----0---0---|
 

|-------------------------||-------------------------|
|-------------------------||-------------------------|
|----9-------11--------11-||----9-------10--------12-|
|-9-----------------------||-9-----------------------|
|----7--------9--------10-||----7--------9--------12-|
|-7-----------------------||-7-----------------------|

|---------------------------------------------------------------|
|---------------------------------------------------------------|
|----9-------11--------12--------12--------15----------------16-|
|-9-------------------------------------------------------------|
|----7--------9--------10--------12--------13----------------14-|
|-7-------------------------------------------------------------|


|---------13-12-----------------------------------------------------------|
|-----10------------------13-14----------------10h11p10/9-----------------|
|-11-------------------14--------------------------------------------9h11-|
|----------------------------------------------------------------11-------|
|-------------------------------------------------------------------------|
|-------------------------------------------------------------------------|

|---------13-12-----------------------------------------------------------|
|-----10------------------13-14----------------10h11p10/9-----------------|
|-11-------------------14-------------------------------------------------|
|----------------------------------------------------------------11-------|
|-------------------------------------------------------------------------|
|-------------------------------------------------------------------------|

Lee Robson LTRobson@gmail.com 16/06/07

VGJam Tabs GoldenEye 007 - "Cradle"
Tabs database last modified Tuesday, 01-Nov-2016 19:14:53 UTC.
Copyright © 1999 - 2016 VideoGameJam.com. All rights reserved.