VGJam Tabs Luigi's Mansion
Luigi's Mansion
"E. Gadd's lab" - Guitar tab
Platform(s):GameCube
Composed by:Kazumi Totaka
Tabbed by:Deezer
Last modified:2013-03-18
Print it:Original file (.TXT)
Hear it:MIDI file
#----------------------------------PLEASE NOTE---------------------------------#
#This file is the author's own work and represents their interpretation of the #
#song. You may only use this file for private study, scholarship, or research. #
#------------------------------------------------------------------------------#

Luigi's Mansion (Nintendo GameCube)
"E. Gadd's Lab"

Originally composed by: Kazumi Totaka
------------------------------------------------------------------------------
Tabbed by: Deezer
For http://www.videogamejam.com
------------------------------------------------------------------------------

Standard tuning: (low to high) EADGBe

Guitar 2 is bass tabbed for guitar.


Intro:
======

      C#5
|-----16-16-16---16---16---16---16------|
|-----14-14-14---14---14---14---14------|
|---------------------------------------|
|---------------------------------------|
|---------------------------------------|
|---------------------------------------|

Part A:
=======

G1|-----13---13---13---13----------13---|--12---------------------------------|
U |---------------------------14--------|----------13-------------------------|
I |-------------------------------------|-------------------------------------|
T |-------------------------------------|-------------------------------------|
A |-------------------------------------|-------------------------------------|
R |-------------------------------------|-------------------------------------|
  |
G2|-------------------------------------|-------------------------------------|
U |-------------------------------------|-------------------------------------|
I |-------------------------------------|-------------------------------------|
T |-------------------------------------|-------------------------------------|
A |--1------------3---------------------|--1------------3---------------------|
R |--------1---------------1-----4------|--------1---------------1-----4------|


G1|-----11---11---11---11----------11---|-------------------------------------|
U |---------------------------13--------|--14------11-------------------------|
I |-------------------------------------|-------------------------------------|
T |-------------------------------------|-------------------------------------|
A |-------------------------------------|-------------------------------------|
R |-------------------------------------|-------------------------------------|
  |
G2|-------------------------------------|-------------------------------------|
U |-------------------------------------|-------------------------------------|
I |-------------------------------------|-------------------------------------|
T |-------------------------------------|-------------------------------------|
A |--1------------3---------------------|-------------------------------------|
R |--------1---------------1-----4------|-------------------------------------|


G1|-----13---13---13---13----------13---|--12---------------------------------|
U |---------------------------14--------|----------13-------------------------|
I |-------------------------------------|-------------------------------------|
T |-------------------------------------|-------------------------------------|
A |-------------------------------------|-------------------------------------|
R |-------------------------------------|-------------------------------------|
  |
G2|-------------------------------------|-------------------------------------|
U |-------------------------------------|-------------------------------------|
I |-------------------------------------|-------------------------------------|
T |-------------------------------------|-------------------------------------|
A |--1------------3---------------------|--1------------3---------------------|
R |--------1---------------1-----4------|--------1---------------1-----4------|


G1|-----11---11---11---11----------11---|-------------------------------------|
U |---------------------------13--------|--14------11-------------------------|
I |-------------------------------------|-------------------------------------|
T |-------------------------------------|-------------------------------------|
A |-------------------------------------|---------------------------------1---|
R |-------------------------------------|-------------------------------------|
  |
G2|-------------------------------------|-------------------------------------|
U |-------------------------------------|-------------------------------------|
I |-------------------------------------|-------------------------------------|
T |-------------------------------------|-------------------------------------|
A |--1------------3---------------------|-------------------------------------|
R |--------1---------------1-----4------|-------------------------------------|

Part B:
=======

G1|-------------------------------|-------------------------------|
U |-------------------------------|-------------------------------|
I |-------------------------------|-------------------------------|
T |-------------------------------|----------1---3------------3---|
A |--0---1---3---4---1--------4---|--3---4-----------4------------|
R |-------------------------------|-------------------------------|


G1|--------------------------------|---------------------------|
U |--------------------------------|---------------------------|
I |----------0---1-----------------|---------------------------|
T |--2---3-----------3---------3---|--2-----------3--------2---|
A |------------------------3-------|--------3------------------|
R |--------------------------------|---------------------------|


G1|-------------------------------|---------------------|-----------|
U |-------------------------------|---------------------|-----------|
I |-------------------------------|---------------------|-----------|
T |--3--------2---3---2---3---2---|--3------------------|-----------|
A |-------------------------------|---------------------|-----------|
R |-------------------------------|---------------------|-----------|

Repeat from Part A.


History:
 03/18/2013 - Added bass line and improved the formatting.
 03/18/2002 - First draft.

VGJam Tabs Luigi's Mansion - "E. Gadd's lab"
Tabs database last modified Thursday, 17-Apr-2014 20:21:29 CDT.
Copyright © 1999 - 2014 VideoGameJam.com. All rights reserved.