VGJam Tabs GoldenEye 007
GoldenEye 007
"Egypt" - Guitar tab
Platform(s):Nintendo 64
Tabbed by:Lee Robson
Last modified:2007-06-16
Date added:2008-02-24
Print it:Original file (.TXT)
GoldenEye 007 - N64
Egypt

Standard Tuning (E A D G B E)

|----------------|
|----------------|
|----------------|
|-4------5-4---4-|
|-2------3-2-0-2-|
|----------------|

|-------------------------------------------------|
|-------------------------------------------------|
|--------------2--------------------------------2-|
|-4------------------------------4----------------|
|-------------------------------------------------|
|-2------------------------------2----------------|
  Fret F# with thumb


|--------------------------------------------------------|
|-7--10--------8--7--------7h8p7-------------------------|
|--------------------------------8-----------------------|
|----------------------------------9--------9h10p9-7-7h9-|
|--------------------------------------------------------|
|--------------------------------------------------------|

|-------------------------------------------------------|
|-7--10--------8--7----8p7------------------------------|
|--------------------------8----------------------------|
|----------------------------10-7-9--------9h10p9-7-7h9-|
|-------------------------------------------------------|
|-------------------------------------------------------|

|---------------------------------------------------------------|
|-7--10--------8--7------8-7-8-7--------------------------------|
|--------------------------------8---------------------8--------|
|----------------------------------9-10-9-7-9--------9---10-7-9-|
|---------------------------------------------------------------|
|---------------------------------------------------------------|

Lee Robson LTRobson@gmail.com 16/06/07

VGJam Tabs GoldenEye 007 - "Egypt"
Tabs database last modified Tuesday, 01-Nov-2016 19:14:53 UTC.
Copyright © 1999 - 2016 VideoGameJam.com. All rights reserved.