VGJam Tabs GoldenEye 007
GoldenEye 007
"Elevator music" - Guitar tab
Platform(s):Nintendo 64
Tabbed by:Chris Wilke
Last modified:2000-06-27
Print it:Original file (.TXT)
Hear it:MIDI file
Here is My Version of 007's elevator tune.It's awesome(eBGDAE)
Chris Wilke Hybriddemon@aol.com

|---20-20-20-22-20-22--||---23-23-22-20-22--||---20-20-22-20-22-23--||---23
|----------------------||-------------------||----------------------||-----
|----------------------||-------------------||----------------------||-----
|----------------------||-------------------||----------------------||-----
|----------------------||-------------------||----------------------||-----
|----------------------||-------------------||----------------------||-----


-23-22-20-22-20--||---20-20-22-20-22--||---23-23-22-20-22--||---20-20-22
-----------------||-------------------||-------------------||-----------
-----------------||-------------------||-------------------||-----------
-----------------||-------------------||-------------------||-----------
-----------------||-------------------||-------------------||-----------
-----------------||-------------------||-------------------||-----------


-20-22-23--||---23-23-22-23-22--|--|--|--|--|--|--|--||------18-20-18--|
-----------||-------------------|--|--|--|--|--|--|--||---20-----------|
-----------||-------------------|--|--|--|--|--|--|--||----------------|
-----------||-------------------|--|--|--|--|--|--|--||----------------|
-----------||-------------------|--|--|--|--|--|--|--||----------------|
-----------||-------------------|--|--|--|--|--|--|--||----------------|


|----------------------||---------18-----||---20-20-18-18-------18-18---
|---20-18-16----16-18--||---20-20----20--||---------------20-20-------20
|------------17--------||----------------||-----------------------------
|----------------------||----------------||-----------------------------
|----------------------||----------------||-----------------------------
|----------------------||----------------||-----------------------------


--------------||----------------------------||---20-22-23-25-----||---25
-20-18-18-20--||---18-16----16-18-16-15-13--||-------------------||-----
--------------||---------17-----------------||-------------------||-----
--------------||----------------------------||-------------------||-----
--------------||----------------------------||-------------------||-----
--------------||----------------------------||-------------------||-----


-23-22-23-25----22--||---20-23----23-24-25--||---23-23------------------
-------------25-----||---------25-----------||---------25-25-23-23----23
--------------------||----------------------||---------------------24---
--------------------||----------------------||--------------------------
--------------------||----------------------||--------------------------
--------------------||----------------------||--------------------------


-----||------------22-20-22--||---23-23-22-20-22--||---20-20-22-20-22-23--|
-25--||---25-25-25-----------||-------------------||----------------------|
-----||----------------------||-------------------||----------------------|
-----||----------------------||-------------------||----------------------|
-----||----------------------||-------------------||----------------------|
-----||----------------------||-------------------||----------------------|


|---23-23-22-20-22--||---20-20-20-22-20-22--||---23-23-22-20-22--||---20
|-------------------||----------------------||-------------------||-----
|-------------------||----------------------||-------------------||-----
|-------------------||----------------------||-------------------||-----
|-------------------||----------------------||-------------------||-----
|-------------------||----------------------||-------------------||-----


-20-22-20-22-23--||---23-23-22-20-22--|
-----------------||-------------------|
-----------------||-------------------|
-----------------||-------------------|
-----------------||-------------------|
-----------------||-------------------|




|-------|--|--|--|--|--|--||---3--6--8---||---6--11----13-14-----||-----
|-------|--|--|--|--|--|--||-------------||---------13-------16--||-----
|-------|--|--|--|--|--|--||-------------||----------------------||---17
|-------|--|--|--|--|--|--||-------------||----------------------||-----
|-------|--|--|--|--|--|--||-------------||----------------------||-----
|-------|--|--|--|--|--|--||-------------||----------------------||-----


--------||------------------11----14-15-18--||---20-----------------||-----
----13--||---------11-13-11----13-----------||------18-20-18----16--||-----
-15-----||------12--------------------------||---------------17-----||---17
--------||---13-----------------------------||----------------------||---17
--------||----------------------------------||----------------------||-----
--------||----------------------------------||----------------------||-----


--------------||----------------------||------------------14-13-11--------|
-------16-----||----------------------||---------11-12-13----------13-11--|
-17-17-15-17--||---------15-----------||---11-12--------------------------|
-17-------17--||------17----16-15-13--||----------------------------------|
--------------||---15-----------------||----------------------------------|
--------------||----------------------||----------------------------------|


|-------------------------------|--|--|--|--|--|--|--|--||--------------
|------11-13-11-----------------|--|--|--|--|--|--|--|--||---13-13-13-15
|---12----------12-11-----------|--|--|--|--|--|--|--|--||--------------
|---------------------13--------|--|--|--|--|--|--|--|--||--------------
|------------------------15-13--|--|--|--|--|--|--|--|--||--------------
|-------------------------------|--|--|--|--|--|--|--|--||--------------


--------||-------------------||----------------------||-------------------|
-13-15--||---16-16-15-13-15--||---13-13-15-13-15-16--||---16-16-15-13-15--|
--------||-------------------||----------------------||-------------------|
--------||-------------------||----------------------||-------------------|
--------||-------------------||----------------------||-------------------|
--------||-------------------||----------------------||-------------------|


|----------------------||-------------------||----------------------||-----
|---13-13-13-15-13-15--||---16-16-15-13-15--||---13-13-15-13-15-16--||---16
|----------------------||-------------------||----------------------||-----
|----------------------||-------------------||----------------------||-----
|----------------------||-------------------||----------------------||-----
|----------------------||-------------------||----------------------||-----


--------------|
-16-15-13-15--|
--------------|
--------------|
--------------|
--------------|
               
Track   5:   Drums

                                                                        
|------16-17--------------||---------17-----------------||------16-17---
|---3---------------------||----------------------------||--------------
|-------------------------||----------------------------||--------------
|---1--12----10-10-12-12--||---12-12----10----10----12--||---12-12----10
|-------------------------||----------------------------||--------------
|---------11----11----11--||---11----11----11----11-----||---11----11---
    L                                                        L          

-----------||---------17-----------------||------16-17--------------||-----
-----------||----------------------------||-------------------------||-----
-----------||----------------------------||-------------------------||-----
-10-12-12--||---12-12----10----10----12--||---12-12----10-10-12-12--||---12
-----------||----------------------------||-------------------------||-----
-11----11--||---11----11----11----11-----||---11----11----11----11--||---11
                                              L                            

----17-----------------||------16-17--------------||---------17---------
-----------------------||-------------------------||--------------------
-----------------------||-------------------------||--------------------
-12----10----10----12--||---12-12----10-10-12-12--||---12-12----10----10
-----------------------||-------------------------||--------------------
----11----11----11-----||---11----11----11----11--||---11----11----11---
                            L                                           

--------||------16-17--------------||---------17-----------------||-----
--------||-------------------------||----------------------------||-----
--------||-------------------------||----------------------------||-----
----12--||---12-12----10-10-12-12--||---12-12----10----10----12--||---12
--------||-------------------------||----------------------------||-----
-11-----||---11----11----11----11--||---11----11----11----11-----||---11
             L                                                        L 

-16-17--------------||---------17-----------------||------16-17---------
--------------------||----------------------------||--------------------
--------------------||----------------------------||--------------------
-12----10-10-12-12--||---12-12----10----10----12--||---12-12----10-10-12
--------------------||----------------------------||--------------------
----11----11----11--||---11----11----11----11-----||---11----11----11---
                                                       L                

-----||---------17-----------------||------16-17--------------||--------
-----||----------------------------||-------------------------||--------
-----||----------------------------||-------------------------||--------
-12--||---12-12----10----10----12--||---12-12----10-10-12-12--||---12-12
-----||----------------------------||-------------------------||--------
-11--||---11----11----11----11-----||---11----11----11----11--||---11---
                                        L                               

-17-----------------||------16-17--------------||---------17------------
--------------------||-------------------------||-----------------------
--------------------||-------------------------||-----------------------
----10----10----12--||---12-12----10-10-12-12--||---12-12----10----10---
--------------------||-------------------------||-----------------------
-11----11----11-----||---11----11----11----11--||---11----11----11----11
                         L                                              

-----||------16-17--------------||---------17-----------------||------16
-----||-------------------------||----------------------------||--------
-----||-------------------------||----------------------------||--------
-12--||---12-12----10-10-12-12--||---12-12----10----10----12--||---12-12
-----||-------------------------||----------------------------||--------
-----||---11----11----11----11--||---11----11----11----11-----||---11---
          L                                                        L    

-17--------------||---------17-----------------||------16-17--------------|
-----------------||----------------------------||-------------------------|
-----------------||----------------------------||-------------------------|
----10-10-12-12--||---12-12----10----10----12--||---12-12----10-10-12-12--|
-----------------||----------------------------||-------------------------|
-11----11----11--||---11----11----11----11-----||---11----11----11----11--|
                                                    L                      

|---------17-----------------||------16-17--------------||---------17---
|----------------------------||-------------------------||--------------
|----------------------------||-------------------------||--------------
|---12-12----10----10----12--||---12-12----10-10-12-12--||---12-12----10
|----------------------------||-------------------------||--------------
|---11----11----11----11-----||---11----11----11----11--||---11----11---
                                  L                                     

--------------||------16-17--------------||---------17-----------------|
--------------||-------------------------||----------------------------|
--------------||-------------------------||----------------------------|
----10----12--||---12-12----10-10-12-12--||---12-12----10----10----12--|
--------------||-------------------------||----------------------------|
-11----11-----||---11----11----11----11--||---11----11----11----11-----|
                   L                                                    

|------16-17--------------||---------17-----------------||------16-17---
|-------------------------||----------------------------||--------------
|-------------------------||----------------------------||--------------
|---12-12----10-10-12-12--||---12-12----10----10----12--||---12-12----10
|-------------------------||----------------------------||--------------
|---11----11----11----11--||---11----11----11----11-----||---11----11---
    L                                                        L          

-----------||---------17-----------------||------16-17--------------||-----
-----------||----------------------------||-------------------------||-----
-----------||----------------------------||-------------------------||-----
-10-12-12--||---12-12----10----10----12--||---12-12----10-10-12-12--||---12
-----------||----------------------------||-------------------------||-----
-11----11--||---11----11----11----11-----||---11----11----11----11--||---11


----17-----------------|
-----------------------|
-----------------------|
-12----10----10----12--|
-----------------------|
----11----11----11-----|



VGJam Tabs GoldenEye 007 - "Elevator music"
Tabs database last modified Tuesday, 01-Nov-2016 19:14:53 UTC.
Copyright © 1999 - 2016 VideoGameJam.com. All rights reserved.