VGJam Tabs GoldenEye 007
GoldenEye 007
"Intro and James Bond theme" - Guitar tab
Platform(s):Nintendo 64
Tabbed by:Deezer
Last modified:2000-01-21
Print it:Original file (.TXT)
Hear it:MIDI file
#----------------------------------PLEASE NOTE---------------------------------#
#This file is the author's own work and represents their interpretation of the #
#song. You may only use this file for private study, scholarship, or research. #
#------------------------------------------------------------------------------#


GoldenEye 007 (Nintendo 64)
"James Bond theme"

Originally composed by: Monty Norman
------------------------------------------------------------------------------
Tabbed by: Deezer (deezer@usa.net)
For http://www.kontek.net/vgjam/
------------------------------------------------------------------------------


The classic "Bond theme" is remixed for the Intro theme and Select screen.
I'll provide the Intro theme and the classic theme... with these you can
figure out the Select screen.


Symbols used:
 \  = slide down
 /  = slide up
 pm = palm mute


Standard Tuning - (low to high) EADGBe



GoldenEye 007 - Intro theme
===========================


Repeated in the background (really slow):
--------------------------------
--------------------------------
--------------------------------
--------------------------------
--2--------3--------4--------3--
--------------------------------


|---------------------------------------------------------------------|
|---------------------------------------------------------------------|
|---------------------------------------------------------------------|
|---------------------------------------------------------------------|
|---------------------------------------------------------------------|
|--0-----2--2-----2\\0-----------0-----3--3-----3--------3----3----3--| x3


---------------------------------------------------------------------
---------------------------------------------------------------------
---------------------------------------------------------------------
---------------------------------------------------------------------
---------------------------------------------------------------------
--0-----2--2-----2\\0-----------0-----3--3-----3--------3----2----0--


--11----10----------------7----5----7--
---------------------------------------
---------------------------------------
---------------------------------------
---------------------------------------
--11----10----------------7----5----7--




Classic "Bond theme"! Whee...
=============================


The intro goes something like:
--6---7------------6---7------------6/7--7-7--7---
--------------------------------------------------
--3---4------------3---4------------3/4--4-4--4---
--------------------------------------------------
-----------2----------------2---------------------
--------------------------------------------------


Then this is repeated in the background:
--------------------------------
--------------------------------
--------------------------------
--------------------------------
--2--------3--------4--------3--
--------------------------------


|--------------------------------------------------|
|--------------------------------------------------|
|--------------------------------------------------|
|--------------------------------------------------|
|--------------------------------------------------|
|--0--2-2-2--2----0--0--0--0--3-3-3--3----2--2--2--| x3
   pm............................................


-----------------------------------------------------------------------
-----------------------------------------------------------------------
-----------------------------------------------------------------------
--------------------------------------------------1--0-----------------
--------------------------------------------------------------2--0--2--
--0--2-2-2--2----0--0--0--0--3-3-3--3----2--1--0-----------------------
  pm............................................


Revisions:
 1/21/2000 - Added composer's name
 8/26/1999 - First draft

VGJam Tabs GoldenEye 007 - "Intro and James Bond theme"
Tabs database last modified Tuesday, 01-Nov-2016 19:14:53 UTC.
Copyright © 1999 - 2016 VideoGameJam.com. All rights reserved.