VGJam Tabs Jet Force Gemini
Jet Force Gemini
"Character March" - Guitar tab
Platform(s):Nintendo 64
Tabbed by:badtom
Last modified:2000-08-15
Print it:Original file (.TXT)
Jet Force Gemini - Character March
game by Rare
song by Grant Kirkhope(?)
transcribed by badtom@ignmail.com


Main, heavy part:

A--------------------10-10-11-10--10-10-11-10------------
E--8----11---11---8--8--8--8--8---8--8--8--8-------------

A--------------------------------------11--11------------
E--8----11---11---11---10-H-11--7-7-7--------------------

A--------------------10-10-11-10--10-10-11-10------------
E--8----11---11---8--8--8--8--8---8--8--8--8-------------

A--------------------------------------------------------
E--8-8-H-10-P-7--3->10-8---------------------------------

G--10--10--10--6-----------------------------------------
B--10--10--10--6---(x4)-----(right into next part)-------
E--8---8---8---4-----------------------------------------

Solo-like part:

e---------------13--11--13------------------------------------------
B--12--13-->15--------------15-15--13-------------------------------

e---------------13--------------------------------------------------
B--12--13-->15------9-9-H-11-P-8------------------------------------

e---------------13--------------13----------------------------------
B--12--13-->15------16--15--13-----12-12-12--15--16--15--13--9--13--
                                (I am not exactly sure about this part)

G--10--10--10--6---------------------
B--10--10--10--6---(x2 fade out)-----
E--8---8---8---4---------------------

VGJam Tabs Jet Force Gemini - "Character March"
Tabs database last modified Tuesday, 01-Nov-2016 19:14:53 UTC.
Copyright © 1999 - 2016 VideoGameJam.com. All rights reserved.