VGJam Tabs Killer Instinct Gold
Killer Instinct Gold
"Character select" - Guitar tab
Platform(s):Nintendo 64
Tabbed by:Mogg Dogg
Last modified:2000-06-07
Print it:Original file (.TXT)
Hear it:MIDI file
Killer Instinct Gold Character Select
Tabbed by Mogg Dogg (jmogg@home.com)

pm=palm mute
...=extended
~~=vibrato

Riff 1
e ------------------------------------------
B ------------------------------------------
G ------------------------------------------
D ------------------------------------------
A -2-2-2--2-2-2-2--2-2-2-2-2-4-4-4-4-4------
E -0-0-0--0-0-0-0--0-0-0-0-0-2-2-2-2-2-3~~--
   pm............

Riff 2
e ------------------------------------------
B ------------------------------------------
G ------------------------------------------
D ------------------------------------------
A -2-2-2--2-2-2-2--4-4-4-4-4-5-5-5-5-5------
E -0-0-0--0-0-0-0--2-2-2-2-2-3-3-3-3-3-5~~--
   pm............

Riff 3 - High-pitched backgroud part (simulated violins...)
e ----------
B ----------
G -9-9-9-9--

Riff 4 - Bell (if you listen carefully, you can hear a bell...)
D --------------
A -7~~----------
E --------------

You can mix it up a little bit w/ a friend: you and him split the parts, though who ever has the high pitched noise and bell will have no fun... This entire "song" is based on E (as you see the E's on E, A, and G), so it wasn't hard at all to tab.

How about that tab? Want me to do more? I'm getting better everyday, and I have a small collection. If you have a personal request, give me a holler via email. thanks.

VGJam Tabs Killer Instinct Gold - "Character select"
Tabs database last modified Tuesday, 01-Nov-2016 19:14:53 UTC.
Copyright © 1999 - 2016 VideoGameJam.com. All rights reserved.