VGJam Tabs Killer Instinct Gold
Killer Instinct Gold
"Fulgore" - Guitar tab
Platform(s):Nintendo 64
Tabbed by:Thomas McManus
Last modified:1999-12-20
Print it:Original file (.TXT)
Game: Killer Instinct Gold
Song: Fulgore
Composer: Robin Beanland
Tabbed by: Thomas McManus (tom0015@hotmail.com)


I have the main part, but I can't figure out most
of the wailing bends and slides, so those aren't in here.


  A#5 A5  G5  E5  C5  C#5   e5
e-----------------------------
B-----------------------------
G-----------------------------
D------------------5---6----9-
A--8---7---5--2----3---4----7-
E--6---5---3--0---------------

p.m. . . = palm mute

song order is the same as on the Killer Instinct Gold CD


Riff one:
A#5\A5\G5\E5 E5 E5 E5
A#5\A5\G5\E5 E5 E5 E5
A#5\A5\G5\E5 E5 E5 E5
A#5\A5\G5 G5    E5

A#5\A5\G5\E5 E5 E5 E5
A#5\A5\G5\E5 E5 E5 E5
A#5\A5\G5\E5 E5 E5 E5
A#5\A5\G5 G5    E5


Riff two:
e5  C5         e5  C#5
e5  C5         e5  A#5


repeat Riff one


Riff three:
  p.m. . . . . . .
e--------------------
B--------------------
G-------------------- play 8 times
D--------------------
A--------------------
E-0-0-0-0-0-0-0-0----

then play

p.m. . . . G5 E5
e-----------------
B-----------------
G-----------------
D-----------------
A----------5--2---
E-0-0-0-0--3--0---

(alternatively, palm mute an E5)


repeat Riffs one and two


Ending [near-death music]:
e5  C5  A#5  C#5
e5  C5  A#5  C#5
e5  C5  A#5  C#5
e5  C5  A#5  C#5

A#5\A5\G5
A#5\A5\G5
A#5\A5\G5
A#5\A5\G5\E5    e5

VGJam Tabs Killer Instinct Gold - "Fulgore"
Tabs database last modified Tuesday, 01-Nov-2016 19:14:53 UTC.
Copyright © 1999 - 2016 VideoGameJam.com. All rights reserved.