VGJam Tabs Killer Instinct Gold
Killer Instinct Gold
"Kim Wu" - Guitar tab
Platform(s):Nintendo 64
Tabbed by:black_orchid100
Last modified:2001-10-21
Print it:Original file (.TXT)
Hear it:MIDI file
Killer Instinct Gold
Kim Wu's Stage Music
I Tabbed this and I Think its pretty good
Tell me what you think
my email is black_orchid100@yahoo.com
this song is in a few parts so here goes.

Part 1
fig 1
--------------------------|-------------------------
--------------------------|-------------------------
-------0--0-0--2--0-------|-------------------------
--2--2---------------2----|-0--0-2--2-5--2--0--2--0-
------------------------3-|-------------------------
--------------------------|-------------------------

Part 1
fig 2
--------------------------|-------------------------
--------------------------|-------------------------
-------0--0-0--2--0-------|-------------------------
--2--2---------------2----|-0--0-2--2-5--2----------
------------------------3-|-------------------------
--------------------------|-------------------------


Part 2
fig 1
--------------------|----------------------------
--------------------|----------------------------
-----4---4---2---4--|-----2---2---0---2-----4^---
-2------------------|-0--------------------------
--------------------|----------------------------
--------------------|----------------------------


Part 2
fig 2
------------------------------|----------------------
------------------------------|-3--5--0--------------
-----4---4---2---4------4---2-|-----------2--4--0----
-2----------------------------|----------------------
------------------------------|----------------------
------------------------------|----------------------

Repeat Part 2: fig 1
Repeat Part 2: fig 2


Part 3
fig 1
----------------|--------------------------------
----------------|--------------------------------
----------------|--------------------------------
----------------|--------------------------------
----------------|--------------0---2-------------
--3---5-----3-5-|-0----5---3-----------0---------


Part 3
fig 2
----------------|--------------------------------
----------------|--------------------------------
----------------|--------------------------------
------0------5--|----2----0----------------------
--3-------------|------------------3-------------


Part 3
fig 3
(this part is played on the second guitar)
------------------------|------------------------
------------------------|------------------------
------------------------|------------------------
------------------------|------------------------
-2--0--2--5--2--0--2--5-|-2--0--2--5--2--0--2--5-
------------------------|------------------------

Repeat Part 3: fig 1

Part 3
fig 4
------------|--------------------------
------------|--------------------------
------------|--------------------------
------------|-0--2-0-------------------
----0-----2-|--------2-----0--2--0-----
-3----------|-----------3-----------3--

(Repeat all parts 6 times before part 4)

Near Death Music
Part 4 
fig 1
--1----1---------------------------|--------------------------
------4----------------------------|--------------------------
----------5--3-5-1------1----------|--------1----1-5----1--4--
----------------------3---1------1-|-3--1-3----3------3-------
-------------------------------3---|--------------------------
-----------------------------------|--------------------------


Part 4
fig 2
--1----1---------------------------|------------------------------
------4----------------------------|------------------------------
----------5--3-5-1------1----------|--------1----1-5----1--4--1-4-
----------------------3---1------1-|-3--1-3----3------3-----------
-------------------------------3---|------------------------------
-----------------------------------|------------------------------


Part 4
fig 3
-1---1---------------------
---4---4--1-4-1------------
----------------3-5-3--5-3-
---------------------------
---------------------------
---------------------------


And Thats it.
Tabbed by black_orchid100 

VGJam Tabs Killer Instinct Gold - "Kim Wu"
Tabs database last modified Tuesday, 01-Nov-2016 19:14:53 UTC.
Copyright © 1999 - 2016 VideoGameJam.com. All rights reserved.