VGJam Tabs Killer Instinct Gold
Killer Instinct Gold
"Intro" - Guitar tab
Platform(s):Nintendo 64
Tabbed by:Mogg Dogg
Last modified:2000-05-27
Print it:Original file (.TXT)
Killer Instinct Gold Intro
Tabbed by Mogg Dogg (jmogg@home.com)


pm=palm mute
...=extended
/ =slide up
\ =slide down
b =bend to (x)
r =release to (x)
()=optional


Intro 1
e -----------------------------
B -----------------------------

G -----------------------------
D -----------------------------
A -2-2-2-2--2-2--2-2-----------
E -0-0-0-0--0-0--0-0-----------
   pm...............


Intro 2
e -----------------------------
B -----------------------------
G -----------------------------
D -------7---9--7---8-7/9------
A -2-2-2-5---7--5---7-5/7------
E -0-0-0---0------0-------------
   pm...   .      .


Main Riff 1
e --------------------------------------------------
B --------------------------------------------------
G --------------------------------------------------
D --------------------------------------------------
A ---------------------------------7-----5---5-5-7--
E -0-0-0-0--0-0--0-0--0--0-0-0-0-0---0-0---0--------
   pm.............................   ...   .


Main Riff 2
e --------------------------------------------------
B --------------------------------------------------
G --------------------------------------------------
D --------------------------------------------------
A ---------------------------------5-----5---5-5-7--
E -0-0-0-0--0-0--0-0--0--0-0-0-0-0---0-0---0--------
   pm.............................   ...   .


Solo 1
e --------------------------------
B -----8-10b12r10-7b8r7-----------
G -7/9----------------------7-9/--
D ----------------------7h9-------
A --------------------------------
E --------------------------------


Solo 2
e --------------------10-12-7-----  you can use (7 on e) or (12 on B), but not both.
B -----8-10b12r10---8-------(12)--  <-- easier vibrato on 12
G -7/9------------9---------------
D --------------------------------
A --------------------------------
E --------------------------------


Solo 3
e --------------------10-12-7------12--
B -----8-10b12r10---8------------8-----
G -7/9------------9------------9-------
D -------------------------------------
A -------------------------------------
E -------------------------------------


Listen to the song and you'll get the timing for the "Intros." The "Main Riffs" were hard to get the timing on, but they are 100% correct. On the "Solos," add vibratos if needed (I didn't want to tab those out, but they are there). 


Do I hear a thanks? Email me at jmogg@home.com


Enjoy this tab!

VGJam Tabs Killer Instinct Gold - "Intro"
Tabs database last modified Tuesday, 01-Nov-2016 19:14:53 UTC.
Copyright © 1999 - 2016 VideoGameJam.com. All rights reserved.