VGJam Tabs Killer Instinct Gold
Killer Instinct Gold
"Maya" - Guitar tab
Platform(s):Nintendo 64
Tabbed by:Thomas McManus
Last modified:1999-12-20
Print it:Original file (.TXT)
Game: Killer Instinct Gold
Song: Maya
Composer: Robin Beanland
Tabbed by: Thomas McManus (tom0015@hotmail.com)



A: play 4 times, then first half once
e---------------------------------
B---------------------------------
G-------0-----------0-0-----------
D-2-2-2---0---2-2-2-----0-0-------
A---------------------------------
E---------------------------------

B: play 4 times, a 2nd guitar can play this over C
e------------------------------------------------------
B------------------------------------------------------
G-----------------------------0------------------------
D-2-2-2-2-2-2-2-2-2-2-2-2-2-2---0----------------------
A------------------------------------------------------
E------------------------------------------------------

C: woodwind part, play twice
e------------------------------------------------------
B------------------------------------------------------
G-------------------0----------------------------------
D-2p0h2p0h2p0h2-0-2---0-2p0h2p0h2p0h2------------------
A------------------------------------------------------
E------------------------------------------------------

End [near-death music]: accent all notes
e------------------------------------------------------
B------------------------------------------------------
G----------0-2-3-----------0-2-3------------0-2-3------
D-4-4--4-4--------4-4--4-4---------4-4--4-4------------
A------------------------------------------------------
E------------------------------------------------------

e------------------------------
B------------------------------
G----------0-2-3-3-3-3---------
D-4-4--4-4---------------------
A------------------------------
E------------------------------

song order (on KIGold CD):
A, B, C, A, B, C, A, End

VGJam Tabs Killer Instinct Gold - "Maya"
Tabs database last modified Tuesday, 01-Nov-2016 19:14:53 UTC.
Copyright © 1999 - 2016 VideoGameJam.com. All rights reserved.