VGJam Tabs Luigi's Mansion
Luigi's Mansion
"Level clear theme" - Guitar tab
Platform(s):GameCube
Composed by:Kazumi Totaka
Tabbed by:Deezer
Last modified:2002-03-18
Print it:Original file (.TXT)
Hear it:MIDI file
#----------------------------------PLEASE NOTE---------------------------------#
#This file is the author's own work and represents their interpretation of the #
#song. You may only use this file for private study, scholarship, or research. #
#------------------------------------------------------------------------------#


Luigi's Mansion (Nintendo GameCube)
"Level clear theme"

Originally composed by: Kazumi Totaka
------------------------------------------------------------------------------
Tabbed by: Deezer (deezer@kontek.net)
For http://www.kontek.net/vgjam/
------------------------------------------------------------------------------

Standard tuning: (low to high) EADGBe


---
---
---
---
-0-
---

-----------------------------------------
-----------------------------------------
-----------------------------------------
-----------------------------------------
----7---------6---------7-------6--------
-5---------5---------5------5------------

---------------------------------------------
---------------------------------------------
---------------------------------------------
------------------------2--1--------2--------
------------2--3--0--3-----------------------
-0-3-5-3-5-----------------------------------


Last modified: 03/18/2002


VGJam Tabs Luigi's Mansion - "Level clear theme"
Tabs database last modified Monday, 21-Jul-2014 21:11:05 CDT.
Copyright © 1999 - 2014 VideoGameJam.com. All rights reserved.