VGJam Tabs The Legend of Zelda: Majora's Mask
The Legend of Zelda: Majora's Mask
"Jam With Japas" - Bass tab
Platform(s):Nintendo 64
Composed by:Koji Kondo, Toru Minegishi
Tabbed by:Brian Wroten
Last modified:2000-12-13
Print it:Original file (.TXT)
There are two bass tabs here, the first is the jam session you have with
Japas, and the second is what Japas plays by himself repeatedly into
infinity in his dorm ("Japas's Theme" I guess).

Questions, comments, death threats? send to Brian Wroten
zombieluv138@hotmail.com

Jam with Japas

   G-2--2--------|-----2-------|-4--4--2-----|---2-4-------|
4/ D-------3--0--|-0-3---0-----|----------3--|-3-----3-----|
/4 A-------------|-------------|-------------|-------------|
   E-------------|-------------|-------------|-------------|

Japas's Theme
(very slow, free time)

G-------7--6----|-------5-4--0-|--------3--7-6-|-------3--7-6-|
D-5--8--------7-|----6---------|---------------|-5p4h5--------|
A---------------|-8------------|-5p4h5---------|--------------|
E---------------|--------------|---------------|--------------|

G---------------------5-8-5---5-----------|-------7--6----|
D---------4---4-7-4-7-------8---8-5-------|-5--8--------7-|
A-4-6-4-6---6-----------------------8-7-5-|---------------|
E-----------------------------------------|---------------|

VGJam Tabs The Legend of Zelda: Majora's Mask - "Jam With Japas"
Tabs database last modified Tuesday, 01-Nov-2016 19:14:53 UTC.
Copyright © 1999 - 2016 VideoGameJam.com. All rights reserved.