VGJam Tabs The Legend of Zelda: Majora's Mask
The Legend of Zelda: Majora's Mask
"Thirteen ocarina songs" - Guitar tab
Platform(s):Nintendo 64
Composed by:Koji Kondo, Toru Minegishi
Tabbed by:Deezer
Last modified:2000-11-25
Print it:Original file (.TXT)
#----------------------------------PLEASE NOTE---------------------------------#
#This file is the author's own work and represents their interpretation of the #
#song. You may only use this file for private study, scholarship, or research. #
#------------------------------------------------------------------------------#

The Legend of Zelda: Majora's Mask (Nintendo 64)
"13 Ocarina songs"

Originally composed by: Koji Kondo
------------------------------------------------------------------------------
Tabbed by: Deezer (deezer@usa.net)
For http://www.kontek.net/vgjam/
------------------------------------------------------------------------------

Symbols used:
 ~ = slight vibrato
 \ = slide down
 p = pull-off
 h = hammer-on

Standard Tuning (unless otherwise indicated) - (low to high) EADGBe


SONG OF TIME [D1-27]

--17--------------------17--------------------17--20--19---------
------------------18--------------------18------------------20---
--------19~~~~~~~-------------19~~~~~~~--------------------------
-----------------------------------------------------------------
-----------------------------------------------------------------
-----------------------------------------------------------------

---------17------------------------------
-18--20-------------------17-------------
----------------19----17------19~~~~~~~~-
-----------------------------------------
-----------------------------------------
-----------------------------------------

SONG OF HEALING [D1-28]

--19----17----------19----17----------19----17-----------------------
--------------18----------------18----------------17------17~~~~~~~~-
------------------------------------------------------19-------------
---------------------------------------------------------------------
---------------------------------------------------------------------
---------------------------------------------------------------------

SONG OF INVERSED TIME [D1-32]

------------17------------17------------------------------------
--18------------18------------17~~~~\16\15\14\13~~\12~~~~~~~~~--
------19~~~---------19~~~---------------------------------------
----------------------------------------------------------------
----------------------------------------------------------------
----------------------------------------------------------------

SONG OF DOUBLE TIME [D1-33]

--17-17---------------17--17----------------18-18------------------
---------------18--18----------------18-18--------17--17--20--20---
--------19--19---------------19--19--------------------------------
-------------------------------------------------------------------
-------------------------------------------------------------------
-------------------------------------------------------------------

--21--21--18-18---22---22---24~~~~~~~~~~~~~~~~~~~~~~~~~-
--------------------------------------------------------
--------------------------------------------------------
--------------------------------------------------------
--------------------------------------------------------
--------------------------------------------------------

AWAKE SONATA [D1-46]

--22--19--22--19----------17~~~~~~------------
----------------------------------------------
--------------------19-------------19~~~~~~~--
----------------------------------------------
----------------------------------------------
----------------------------------------------

GALE SONG [D1-48]

------19--22~~~~~-------19--22~~~~~~~~~~~~--
--18----------------18----------------------
--------------------------------------------
--------------------------------------------
--------------------------------------------
--------------------------------------------

COMMANDING VOW [D1-55]

--17~~~~~~~~~~----------------------17~~~~~--22~~~~~~~~~~~--
---------------18~~~~--------18~~~~-------------------------
----------------------19~~~~--------------------------------
------------------------------------------------------------
------------------------------------------------------------
------------------------------------------------------------

SONG OF ELDER [D2-02]

--------17----19----------17----19~~~~~~~~~~~~--------
------------------------------------------------------
--19----------------19--------------------------------
------------------------------------------------------
------------------------------------------------------
------------------------------------------------------

GORON LULLABY [D2-04]

----------17------19--------------17------19------17----------------
--------------------------------------------------------------------
--19----------------------19------------------------------19~~~~~~--
--------------------------------------------------------------------
--------------------------------------------------------------------
--------------------------------------------------------------------

EPONA'S SONG [D2-14]

--22--19------------22--19------------22--19--------19~~~-----------
----------22~~~~~~~---------22~~~~~~~---------22~~~--------22~~~~~~-
--------------------------------------------------------------------
--------------------------------------------------------------------
--------------------------------------------------------------------
--------------------------------------------------------------------


SEA ROAR BOSSANOVA [D1-31]

--19----22-19--------------19-17~~~~~~~~~~~~~~~~~-
--------------22~~~~~~~-18------------------------
--------------------------------------------------
--------------------------------------------------
--------------------------------------------------
--------------------------------------------------

SONG OF STORMS [D1-37]
(The notes go beyond the range of a standardly-tuned 24-fret guitar,
 so you'll have to tune the high E string up a half-step to F.)

f--------21~~~~--------21~~~~-23---24p23h24p23\19--------------
B-----18------------18----------------------------22~~~~~~~~~--
G--19------------19--------------------------------------------
D--------------------------------------------------------------
A--------------------------------------------------------------
E--------------------------------------------------------------

SKIN-SHEDDING ELEGY [D2-41]

--17~~~~~~~-19~~~~-17~~~~-----17--22~~~~-19~~~~~~~~~~~--
--------------------------18----------------------------
--------------------------------------------------------
--------------------------------------------------------
--------------------------------------------------------
--------------------------------------------------------


Last updated: 11/25/2000

VGJam Tabs The Legend of Zelda: Majora's Mask - "Thirteen ocarina songs"
Tabs database last modified Tuesday, 01-Nov-2016 19:14:53 UTC.
Copyright © 1999 - 2016 VideoGameJam.com. All rights reserved.