VGJam Tabs The Legend of Zelda: Ocarina of Time
The Legend of Zelda: Ocarina of Time
"Lon Lon Ranch" - Guitar tab
Platform(s):Nintendo 64
Composed by:Koji Kondo
Soundtrack:The Legend of Zelda: Ocarina of Time Sound Track CD (track 15)
Tabbed by:Thomas McManus
Last modified:2000-01-13
Print it:Original file (.TXT)
Hear it:MIDI file
Game: The Legend of Zelda: Ocarina of Time
Song: LonLon Ranch
Composed by: Koji Kondo
Tabbed by: Thomas McManus (tom0015@hotmail.com)

Notes: There are a few places where the background riffs
play something different than what I have, I couldn't make
out what they changed to, so just figure it out yourself.
Also, the bends sound right to me, but who knows?
I can guarantee that the main part sounds right. Enjoy. :)


INTRO:
      D D        G G             D D       G G
e-----2-2--------3-3---6b7r6-----2-2-------3-3---5b6r5-3-
B-----3-3--------0-0-------------3-3-------0-0-----------
G---2-2-2--2-----0-0-----------2-2-2-2-----0-0-----------
D-0------------0-------------0-----------0---------------
A--------------------------------------------------------
E------------3-------------------------3-----------------

MAIN:
e-------6b7r6-------5b6r5-----------3b4r3-----------------------
B-3-0---------3-0---------3-0---0---------------0-3-0-3-3-2-0---
G-----2-----------2-----------2---2---------------------------2-
D-----------------------------------------4-3-4-----------------
A---------------------------------------------------------------
E---------------------------------------------------------------

e-6b7r6-------6b7r6-------5b6r5-----------------------6b7r6---0---
B-------3-0---------3-0---------3-0---0---------0-2-3-------3---3-
G-----------2-----------2-----------2---2-------------------------
D-----------------------------------------4-3-4-------------------
A-----------------------------------------------------------------
E-----------------------------------------------------------------

MAIN, part two:
e--------------------------------------------------------
B-----------1---------1b2r1------------------------------
G-3-3-3-3-3---3-3-2-2---------0-0-0-0-0-2-3-2------------
D---------------------------3----------------------------
A--------------------------------------------------------
E--------------------------------------------------------

e--------------------------------------------------------
B-----------1---------1b2r1------------------------------
G-3-3-3-3-3---3-3-2-2---------0-0-0-0-0-2-3-2------------
D---------------------------3----------------------------
A--------------------------------------------------------
E--------------------------------------------------------

INTERLUDE:
e------------
B------------
G------------
D-2/11-------
A------------
E------------

MAIN part three:
e-------6b7r6-------5b6r5-----------3b4r3-----------------------
B-3-0---------3-0---------3-0---0---------------0-3-0-3-3-2-0---
G-----2-----------2-----------2---2---------------------------2-
D-----------------------------------------4-3-4-----------------
A---------------------------------------------------------------
E---------------------------------------------------------------

e-6b7r6-----------------------------------6b7r6---0-------------
B-------3-0---3-0---3-0---0---------0-2-3-------3---3-----------
G-----------2-----2-----2---2-----------------------------------
D-----------------------------4-3-4-----------------------------
A---------------------------------------------------------------
E---------------------------------------------------------------

BRIDGE:
e-----2-2--------3-3----10-10~~~-7-5~~-1p0--------
B-----3-3--------0-0-----------------------3~~~---
G---2-2-2--2-----0-0------------------------------
D-0------------0----------------------------------
A-------------------------------------------------
E------------3------------------------------------


then repeat it from the beginning, only sound like a different
instrument! ;)


I didn't want to label parts, since I just listed it straight
through what to play, but it was necessary to establish when
to play which background riff.

riff A:
      D D        G G
e-----2-2--------3-3--------------------
B-----3-3--------0-0--------------------
G---2-2-2--2-----0-0--------------------
D-0------------0------------------------
A---------------------------------------
E------------3--------------------------

riff B:
        F            C
e-------1------------1------------------
B-----1---1--------1---1----------------
G---2-------2---------------------------
D-3--------------2-------2--------------
A--------------3------------------------
E---------------------------------------

INTRO - nothing
MAIN - riff A
MAIN, part two - riff B
INTERLUDE - nothing
MAIN, part three - riff A
BRIDGE - nothing

VGJam Tabs The Legend of Zelda: Ocarina of Time - "Lon Lon Ranch"
Tabs database last modified Tuesday, 01-Nov-2016 19:14:53 UTC.
Copyright © 1999 - 2016 VideoGameJam.com. All rights reserved.