VGJam Tabs The Legend of Zelda: Ocarina of Time
The Legend of Zelda: Ocarina of Time
"Kakariko Village" - Guitar tab
Platform(s):Nintendo 64
Composed by:Koji Kondo
Soundtrack:The Legend of Zelda: Ocarina of Time Sound Track CD (track 23)
Tabbed by:El Beño
Last modified:2002-07-17
Print it:Original file (.TXT)
Hear it:MIDI file
Nintendo 64- Zelda: Ocarina of Time- Kakariko Village


 Here's the complete Kakariko Village tab, 100% correct or your money back

 Guitar One (Tune down 1/2 step)
 ||-------------|-------------|-------------|-------------|
 ||-------4-----|-------------|-------7-----|-------------|
 ||-----4---4---|-------4-----|-----4---4---|-------3-----|
 ||---4-------4-|-----6---6---|---6-------6-|-----4---4---|
 ||-2-----------|---6-------6-|-4-----------|---4-------4-|
 ||-------------|-4-----------|-------------|-2-----------|

 |-------------|-------------|-------------|-------------|
 |-------4-----|-------------|-------7-----|-------------|
 |-----4---4---|-------4-----|-----4---4---|-------3-----|
 |---4-------4-|-----6---6---|---6-------6-|-----4---4---|
 |-2-----------|---6-------6-|-4-----------|---4-------4-|
 |-------------|-4-----------|-------------|-2-----------|

 |-------------|-------------|-------------|-------------|
 |-------4-----|-------------|-------7-----|-------------|
 |-----4---4---|-------4-----|-----4---4---|-------3-----|
 |---4-------4-|-----6---6---|---6-------6-|-----4---4---|
 |-2-----------|---6-------6-|-4-----------|---4-------4-|
 |-------------|-4-----------|-------------|-2-----------|

 |-------------|-------------|-------------|-------------|
 |-----0---0---|-------------|-------------|-------------|
 |-------1---1-|-----3---3---|-----4---4---|-----5---5---|
 |-------------|-------4---4-|---4---4---4-|---6---6---6-|
 |---2---------|---4---------|-2-----------|-------------|
 |-0-----------|-2-----------|-------------|-4-----------|

 |-------------|-------------||-------------|-------------|
 |-------------|-------------||-------------|-------------|
 |-----4---4---|-----3---3---||-----4---4---|-----4---4---|
 |---6---6---6-|-------------||---4---4---4-|---4---4---4-|
 |-4-----------|---4---4---4-||-2-----------|-2-----------|
 |-------------|-2-----------||-------------|-------------|

 |-----0---0---|-----0---0---|-------------|-------------|
 |-----0---0---|-----0---0---|-----0---0---|-----0---0---|
 |-------1---1-|-------1---1-|-----8---8---|-----8---8---|
 |-------------|-------------|---4---4---4-|---4---4---4-|
 |---2---------|---2---------|-6-----------|-6-----------|
 |-0-----------|-0-----------|-------------|-------------|

 |-----0---0---|-----0---0---|-------------|-------------|
 |-----0---0---|-------------|-----0---0---|-----2---2---|
 |-------------|-----3---3---|-----8---8---|-----2---2---|
 |---6---6---6-|-------------|-------------|---4---4---4-|
 |-4-----------|---4---4---4-|---9---9---9-|-0-----------|
 |-------------|-2-----------|-7-----------|-------------|

 |-----0---0---|-----0---0---|-------------|-------------|
 |-----0---0---|-----0---0---|-----0---0---|-----4---4---|
 |-------1---1-|-------1---1-|-----8---8---|-----5---5---|
 |-------------|-------------|---4---4---4-|---6---6---6-|
 |---2---------|---2---------|-6-----------|-------------|
 |-0-----------|-0-----------|-------------|-4-----------|

 |-------------|-----2---2---|-----0---0---|
 |-----5---5---|-------------|-----0---0---|
 |-----4---4---|-----3---3---|-------------|
 |---6---6---6-|-------------|---4---4---4-|
 |-4-----------|---4---4---4-|-2-----------|
 |-------------|-2-----------|-------------|


 Guitar Two (Tune down 1/2 step)

 |-------------||-------------|-------------|-------------|
 |-------------||-------------|-------------|-------------|
 |-------------||-------------|-------------|----------11-|
 |-------------||-------------|-------------|-------------|
 |-------------||-------------|-------------|-------------|
 |-------------||-------------|-------------|-------------|

 |-------------|-11~---------|-14~---------|-------------|
 |-12~---------|----------12-|-------------|-------------|
 |----------11-|-------------|-------------|----------11-|
 |-------------|-------------|-------------|-------------|
 |-------------|-------------|-------------|-------------|
 |-------------|-------------|-------------|-------------|

 |-------------|-11~---------|-14~---------|----------14-|
 |-12~---------|----------12-|-------------|-------------|
 |----------11-|-------------|-------------|-------------|
 |-------------|-------------|-------------|-------------|
 |-------------|-------------|-------------|-------------|
 |-------------|-------------|-------------|-------------|

 |-16~---------|----------16-|-14~---------|-------------|
 |-------------|-------------|-------------|-16----------|
 |-------------|-15----------|-------------|-------------|
 |-------------|-------------|-------------|-------------|
 |-------------|-------------|-------------|-------------|
 |-------------|-------------|-------------|-------------|


 |-------------|-------------|-------------||-------------|
 |-16~---------|-16~------14-|-12----------||----------12-|
 |-------------|-------------|-------------||-------------|
 |-------------|-------------|-------------||-------------|
 |-------------|-------------|-------------||-------------|
 |-------------|-------------|-------------||-------------|
 (Interlude)
 |-------------|-----------9-|-------------|-------------|
 |-12----------|-11----------|-12----------|-------------|
 |-------------|-------------|-------------|-11----------|
 |-------------|-------------|-------------|-------------|
 |-------------|-------------|-------------|-------------|
 |-------------|-------------|-------------|-------------|

 |-------------|-------------|-------------|-------------|
 |-------------|-----------7-|-------------|----------12-|
 |-9---------8-|-9-----------|-8-----------|-------------|
 |-------------|-------------|-------------|-------------|
 |-------------|-------------|-------------|-------------|
 |-------------|-------------|-------------|-------------|

 |-------------|-----------9-|-------------|-----14------|
 |-12----------|-11----------|-12----------|-------------|
 |-------------|-------------|-------------|-11----------|
 |-------------|-------------|-------------|-------------|
 |-------------|-------------|-------------|-------------|
 |-------------|-------------|-------------|-------------|

 |-12----------|-11----------|-------------|
 |-------------|----------14-|-12----------|
 |-------------|-------------|-------------|
 |-------------|-------------|-------------|
 |-------------|-------------|-------------|
 |-------------|-------------|-------------|

 That was my first tab.  I personally think it's totally sweet

 El Beo
 Thegreatelbeno@aol.com
VGJam Tabs The Legend of Zelda: Ocarina of Time - "Kakariko Village"
Tabs database last modified Monday, 21-Jul-2014 21:11:05 CDT.
Copyright © 1999 - 2014 VideoGameJam.com. All rights reserved.