VGJam Tabs The Legend of Zelda: Ocarina of Time
The Legend of Zelda: Ocarina of Time
"Windmill Hut" - Guitar tab
Platform(s):Nintendo 64
Composed by:Koji Kondo
Soundtrack:The Legend of Zelda: Ocarina of Time Sound Track CD (track 24)
Tabbed by:El Beño
Last modified:2002-07-19
Print it:Original file (.TXT)
Hear it:MIDI file
Nintendo 64- Zelda: Ocarina of Time- Song of Storms (Winmill Hut)


This is the song heard when you go see that crazy winmill guy
2/3 time signature
Note the droppage of your bottom string there

Guitar 1

      |   |   |       |   |   |       |   |   |       |   |   |
E||---------------|---------------|---------------|---------------|
B||---------------|-------0-------|-------1---1---|-------0-------|
G||-------2---2---|-------0-------|-------2---2---|-------0-------|
D||-------3---3---|-----2---------|---------------|-----2---------|
A||---------------|---------------|---------------|---------------|
D||---0-----------|---2-----------|---3-----------|---2-----------|

     |   |   |       |   |   |       |   |   |       |   |   |
|---------------|---------------|---------------|---------------|
|---------------|-------0-------|-------1---1---|-------0-------|
|-------2---2---|-------0-------|-------2---2---|-------0-------|
|-------3---3---|-----2---------|---------------|-----2---------|
|---------------|---------------|---------------|---------------|
|---0-----------|---2-----------|---3-----------|---2-----------|

    |   |   |       |   |   |       |   |   |       |   |   |
|---------------|---------------|---------------|---------------|
|---------------|-------0-------|-------1---1---|---------------|
|-------2---2---|-------0-------|-------2---2---|-------2-------|
|-------3---3---|---------------|---------------|-------5-------|
|---------------|---------------|---------------|---------------|
|---0-----------|---2-----------|---3-----------|---2-----------|

    |   |   |       |   |   |       |   |   |       |   |   |
|---------------|---------------|---------------|---------------|
|---------------|---------------|---------------|---------------|
|-------2---2---|-------2-------|-------2---2---|-------2-------|
|-------3---3---|---------------|-------3---3---|---------------|
|---1-----------|-------3-------|---1-----------|---0---4-------|
|---------------|---3-----------|---------------|---------------|

    |   |   |       |   |   |       |   |   |       |   |   |
|---------------|---------------|---------------|---------------|
|---------------|-------0-------|-------1---1---|---------------|
|-------2---2---|-------0-------|-------2---2---|-------2-------|
|-------3---3---|---------------|---------------|-------5-------|
|---------------|---------------|---------------|---------------|
|---0-----------|---2-----------|---3-----------|---2-----------|

    |   |   |       |   |   |      
|---------------|---------------||
|---------------|---------------||
|-------2---2---|-------2-------|| ......repeat until you're dizzy
|-------3---3---|---------------||
|---1-----------|---0---4-------||
|---------------|---------------||




Guitar 2


|---------------|---------------||---------------|---------------|
|---------------|---------------||---------------|---------------|
|---------------|---------------||---------------|---------------|
|---------------|---------------||---------------|---------------|
|---------------|---------------||---------------|---------------|
|---------------|---------------||---------------|---------------|


|---------------|---------------|---------------|---------------|
|---------------|---------------|---------------|---------------|
|---------------|---------------|---------------|---------------|
|---------------|---------------|---------------|---------------|
|---------------|---------------|---------------|---------------|
|---------------|---------------|---------------|---------------|

    |   |   |       |   |   |       |   |   |       |   |   |
|---------------|---------------|---0-----1-0-1-|---0-----------|
|-------3-------|-------3-------|---------------|-----1---------|
|---------------|---------------|---------------|-------2-------|
|---0-3---------|---0-3---------|---------------|---------------|
|---------------|---------------|---------------|---------------|
|---------------|---------------|---------------|---------------|

    |   |   |       |   |   |       |   |   |       |   |   |
|---------------|---------------|---------------|---------------|
|---------------|---------------|---------------|---------------|
|---2---------0-|---2-----------|---2---------0-|---------------|
|---------0-3---|---------------|---------0-3---|---2-----------|
|---------------|---------------|---------------|---------------|
|---------------|---------------|---------------|---------------|

    |   |   |       |   |   |       |   |   |       |   |   |
|---------------|---------------|---0-----1-0-1-|---0-----------|
|-------3-------|-------3-------|---------------|-----1---------|
|---------------|---------------|---------------|-------2-------|
|---0-3---------|---0-3---------|---------------|---------------|
|---------------|---------------|---------------|---------------|
|---------------|---------------|---------------|---------------|

    |   |   |       |   |   |       |   |   |       |   |   |
|---------------|---------------|---------------|---------------||
|---------------|---------------|---------------|---------------||
|---2---------0-|---2-------2---|---------------|---------------||
|---------0-3---|---------------|---0-----------|---------------||
|---------------|---------------|---------------|---------------||
|---------------|---------------|---------------|---------------||


Dang! That's good biscuits

El Beo
thegreatelbeno@aol.com

VGJam Tabs The Legend of Zelda: Ocarina of Time - "Windmill Hut"
Tabs database last modified Tuesday, 01-Nov-2016 19:14:53 UTC.
Copyright © 1999 - 2016 VideoGameJam.com. All rights reserved.