VGJam Tabs Metroid Prime
Metroid Prime
"Phendrana Drifts" - Guitar tab
Platform(s):GameCube
Tabbed by:Dave Andrea
Last modified:2004-07-18
Print it:Original file (.TXT)
Hear it:MIDI file
Gamecube

Metroid Prime

Phendrana Drifts

Tabbed by Dave Andrea  (dave_a18@hotmail.com)

Hey, this is my first tab but I'm pretty sure it's right.

This is played in the background over and over

e|----------------------------------------------------------|
b|----------------------------------------------------------|
g|--------------8---10~--------------------------8---12~----|
d|---------10-------------------------------10--------------|
a|-----8--------------------------------8-------------------|
e|----------------------------------------------------------|

e|----------------------------------------------------------|
b|----------------------------------------------------------|
g|--------------8---10~--------------------------8---10~----|
d|---------10-------------------------------10--------------|
a|-----8--------------------------------8-------------------|
e|----------------------------------------------------------|

This is the melody
e|-------------------------------3--------------------------|
b|----4--3--4--6--------4--3--4---------3-------------------|
g|-----------------------------------------3--0--5----------|
d|----------------------------------------------------------|
a|----------------------------------------------------------|
e|----------------------------------------------------------|

e|-------------------------------3-----------------------------|
b|----4--3--4--6--------4--3--4---------4--3--4--6----3--------|
g|-------------------------------------------------------3--5--|
d|-------------------------------------------------------------|
a|-------------------------------------------------------------|
e|-------------------------------------------------------------|

This is just repeated over and over.

VGJam Tabs Metroid Prime - "Phendrana Drifts"
Tabs database last modified Monday, 21-Jul-2014 21:11:05 CDT.
Copyright © 1999 - 2014 VideoGameJam.com. All rights reserved.