VGJam Tabs The Legend of Zelda: Ocarina of Time
The Legend of Zelda: Ocarina of Time
"Last Battle" - Guitar tab
Platform(s):Nintendo 64
Composed by:Koji Kondo
Soundtrack:The Legend of Zelda: Ocarina of Time Sound Track CD (track 27)
Tabbed by:Thomas McManus
Last modified:2000-03-18
Print it:Original file (.TXT)
Song: Last Battle
Game: The Legend of Zelda: Ocarina of Time
Composer: Koji Kondo
Tabbed by: Thomas McManus (tom0015@hotmail.com)


The main part is long and drawn out, almost every note plays for a whole
measure.


Intro:
e-2-1-0~~---------4--5-1~~~~----------
B---------4-3-2-----------------------
G---------------1---------------------
D-------------------------------------
A-------------------------------------
E-------------------------------------


Main:
e---------------------------------------------------------------------
B---------------------------------------------------------------------
G------------------0--------------------------------------------------
D----0-------2--0-----2-----------------2--0-------2--0--2------------
A-2-----2------------------3--0--3-2----------2--------------3--0--2--
E---------------------------------------------------------------------


Play the intro, then just keep repeating the main.

VGJam Tabs The Legend of Zelda: Ocarina of Time - "Last Battle"
Tabs database last modified Tuesday, 01-Nov-2016 19:14:53 UTC.
Copyright © 1999 - 2016 VideoGameJam.com. All rights reserved.