VGJam Tabs The Legend of Zelda: Ocarina of Time
The Legend of Zelda: Ocarina of Time
"Bolero of Fire" - Guitar tab
Platform(s):Nintendo 64
Composed by:Koji Kondo
Tabbed by:Link2458
Last modified:2002-08-21
Print it:Original file (.TXT)
Hear it:MIDI file
Play this 2x
---------------5-----5-----
---6-----6--------6-----6--
------7-----7--------------
---------------------------
---------------------------
---------------------------

-------------6-----6-----
-8-----8--------8-----8--
----9-----9--------------
-------------------------
-------------------------
-------------------------


-5-----5-----10------10------13------13------17------17------14------14------
----6-----6------10------10------15------15------18------18------13------13--
-----------------------------------------------------------------------------
-----------------------------------------------------------------------------
-----------------------------------------------------------------------------
-----------------------------------------------------------------------------

-13----------------------
-------------------------
-----14------------------
----------15---14----12--
-------------------------
-------------------------

VGJam Tabs The Legend of Zelda: Ocarina of Time - "Bolero of Fire"
Tabs database last modified Tuesday, 01-Nov-2016 19:14:53 UTC.
Copyright © 1999 - 2016 VideoGameJam.com. All rights reserved.