VGJam Tabs The Legend of Zelda: Ocarina of Time
The Legend of Zelda: Ocarina of Time
"Temple of Time" - Guitar tab
Platform(s):Nintendo 64
Composed by:Koji Kondo
Tabbed by:Justin L.
Last modified:2002-01-03
Print it:Original file (.TXT)
Hear it:MIDI file
Nintendo 64- Zelda Ocarina Of Time- Temple Of Time


---5------------5--------------5----8----7----3----------3-
-------3----6--------3----6-------------------------6------
-----------------------------------------------------------
-----------------------------------------------------------
-----------------------------------------------------------
-----------------------------------------------------------

---5------------------------------------------------------
-------3---------5----3-----------------------------------
------------5---------------------------------------------
----------------------------------------------------------
----------------------------------------------------------
----------------------------------------------------------


Tabbed by Justin L. (narcissus_narcosis88@hotmail.com)

VGJam Tabs The Legend of Zelda: Ocarina of Time - "Temple of Time"
Tabs database last modified Thursday, 17-Apr-2014 20:21:29 CDT.
Copyright © 1999 - 2014 VideoGameJam.com. All rights reserved.