VGJam Tabs The Legend of Zelda: Ocarina of Time
The Legend of Zelda: Ocarina of Time
"Twelve ocarina songs" - Guitar tab
Platform(s):Nintendo 64
Composed by:Koji Kondo
Tabbed by:AKndOfMgic
Last modified:1999-05-21
Print it:Original file (.TXT)
These are the little tunes that you play on your Ocarina for spells throught
the game:

C Tuning(two steps down)

  Zelda's lullaby
  e-----11---14---------11---14-----------
  b------------------14---------------14--
  g---------------------------------------
  d---------------------------------------

  Epona's Song
  e---14----11-----9-----14------11-------9---
  b-------------------------------------------
  g-------------------------------------------
  d-------------------------------------------

  Saria's Song
  e--------9---11----------9----11---------------
  b---10------------10---------------------------
  g----------------------------------------------
  d----------------------------------------------

  Sun's Song
  e---9----------14-------9--------------14-------
  b-------10----------------------10--------------
  g-----------------------------------------------
  d-----------------------------------------------

  Song of Time
  e----9----------------9--------------------------
  b--------------10-----------------10-------------
  g--------11-----------------11-------------------
  d------------------------------------------------

  Song of Storms 
  e------------------14---------------------14-----
  b-----------10--------------------10-------------
  g----11-------------------11---------------------
  d------------------------------------------------

  Minuet of Forest
  e-----------14-----11------9------11------9---
  b---------------------------------------------
  g----11---------------------------------------
  d---------------------------------------------

  Bolero of Fire
  e-------------------------------9------------9-------
  b----10----------10----------------10------------10--
  g-----------11----------11---------------------------
  d----------------------------------------------------

  Serenade of Water
  e---------------9-----9-----11-------------------
  b---------10-------------------------------------
  g---11-------------------------------------------
  d------------------------------------------------

  Requiem of Spirit 
  e---------------------9------------------------
  b---------10--------------10-------------------
  g---11--------11---------------11--------------
  d----------------------------------------------

  Nocturne of Shadow
  e--11----9----9----------11----9---------------
  b----------------------------------------10----
  g---------------------11-----------------------
  d----------------------------------------------

  Prelude of light
  e---14-----11-----14-----11-------------14--
  b-------------------------------------14----
  g-------------------------------------------
  d-------------------------------------------

Really easy

VGJam Tabs The Legend of Zelda: Ocarina of Time - "Twelve ocarina songs"
Tabs database last modified Tuesday, 01-Nov-2016 19:14:53 UTC.
Copyright © 1999 - 2016 VideoGameJam.com. All rights reserved.