VGJam Tabs The Legend of Zelda: Ocarina of Time
The Legend of Zelda: Ocarina of Time
"Zelda's Lullaby" - Guitar tab
Platform(s):Nintendo 64
Composed by:Koji Kondo
Tabbed by:Justin L.
Last modified:2001-09-07
Print it:Original file (.TXT)
The Legend Of Zelda: Ocarina Of Time(nintendo 64)
"Zelda's Lullaby"

This is the Correct and full version of Zelda's Lullaby which is played 
on 
the Ocarina.(with the parts you don't have to play on the ocarina)


|--------------------------------5--3------------------
|------3----------3----------3--------3---------------
|---4----2-----4----2----4--------------5--4--2------
|----------------------------------------------------
|----------------------------------------------------
|----------------------------------------------------


|------------------------------------------5---3---10--------
|-------3-----------------3----------3---------------------
|----4----2--0--2---4-----2----4---------------------
|----------------------------------------------------
|----------------------------------------------------
|----------------------------------------------------


|----10-----8----7--8--7-------------6---4--3--4--3-----------
|-------------------------------8--------------------------4-------
|-------------------------------------------------------------------
|-------------------------------------------------------------------
|-------------------------------------------------------------------
|-------------------------------------------------------------------

|----10-----8---7--8--7-----------10------15----
|------------------------------8---------------------
|----------------------------------------------------
|----------------------------------------------------
|----------------------------------------------------
|----------------------------------------------------

Tabbed By: Justin L.
email me at Narcissus_narcosis88@hotmail.com

VGJam Tabs The Legend of Zelda: Ocarina of Time - "Zelda's Lullaby"
Tabs database last modified Tuesday, 01-Nov-2016 19:14:53 UTC.
Copyright © 1999 - 2016 VideoGameJam.com. All rights reserved.