VGJam Tabs Mario Party
Mario Party
"DK's Jungle Adventure" - Guitar tab
Platform(s):Nintendo 64
Composed by:Yasunori Mitsuda
Tabbed by:Deezer
Last modified:2002-03-18
Print it:Original file (.TXT)
Hear it:MIDI file
#----------------------------------PLEASE NOTE---------------------------------#
#This file is the author's own work and represents their interpretation of the #
#song. You may only use this file for private study, scholarship, or research. #
#------------------------------------------------------------------------------#


Mario Party (Nintendo 64)
"DK's Jungle Adventure"

Originally composed by: Yasunori Mitsuda
------------------------------------------------------------------------------
Tabbed by: Deezer (deezer@kontek.net)
For http://www.kontek.net/vgjam/
------------------------------------------------------------------------------

Standard tuning: (low to high) EADGBe


|---------------------------------------------2---3-2-----------
|---------4---5---------4---5---------4---5-------------5---4-5-
|-2---5-----------2-5-----------2-5-----------------------------
|---------------------------------------------------------------
|---------------------------------------------------------------
|---------------------------------------------------------------

 -------------------------------2-3---5---3---2---3-2----------|
 ---------4---5---------4---5---------------------------5------|
 -2---5-----------2-5------------------------------------------|
 --------------------------------------------------------------|
 --------------------------------------------------------------|
 --------------------------------------------------------------| x2

--------9---12---11---9-----------------
-----10-------------------12---10-------
-8-9---------------------------------9--
----------------------------------------
----------------------------------------
----------------------------------------

--------9---12---11---9---11---9---------9-
-----10----------------------------10------
-8-9---------------------------------------
-------------------------------------------
-------------------------------------------
-------------------------------------------

--------9---12---11---9-----------------
-----10-------------------12---10-------
-8-9---------------------------------9--
----------------------------------------
----------------------------------------
----------------------------------------

----------------------------------------
-7----8----7----8----7--8--7----5-------
-8----9----8----9----8--9--8----6-------
----------------------------------------
----------------------------------------
----------------------------------------

Back to beginning.


Last modified: 03/18/2002

VGJam Tabs Mario Party - "DK's Jungle Adventure"
Tabs database last modified Tuesday, 01-Nov-2016 19:14:53 UTC.
Copyright © 1999 - 2016 VideoGameJam.com. All rights reserved.