VGJam Tabs Mission: Impossible
Mission: Impossible
"Embassy Pianist" - Guitar tab
Platform(s):Nintendo 64
Tabbed by:Vincent Bouchard
Last modified:2006-12-09
Print it:Original file (.TXT)
Hear it:MIDI file
                                 EMBASSY PIANIST
                             Mission : Impossible 64

Music by Lalo Schifrin, Mike Pummel, Rich Goldman
Transcribed by Vincent Bouchard

Gtr I (E A D G B E) - 'Piano Lead'

    Q=80
   4/4
    Gtr I
    H.      E  S  S    E  S  S  E S  S  E  S  S  E  E
||------------------|---------------------------------|
||o-----------------|---------------------10-11-10----|
||------------------|-------------9-11-12----------12-|
||------------------|-------10-12---------------------|
||o-----------10-12-|-13-13---------------------------|
||------------------|---------------------------------|


   Q   Q   Q.    S  S    E  S  S  E S  S  E  S  S  E  E
|---------------------|---------------------------------|
|---------------------|---------------------10-11-10----|
|-10------------------|-------------9-11-12----------12-|
|-----13--12----------|-------10-12---------------------|
|---------------10-12-|-13-13---------------------------|
|---------------------|---------------------------------|


   Q   E  E  Q.    S  S    e  e  e  S  S  E  S  S  E  E
|-----------------------|-------------------------------|
|-----------------------|-------------10-11-10----------|
|-10-----------------11-|-12-12-12-12----------12-10----|
|-----10-13-12----12----|----------------------------13-|
|-----------------------|-------------------------------|
|-----------------------|-------------------------------|


   E  e  e  e  Q.    E    Q.    S  S  E  S  S  E  E
|----------------------|----------------------------|
|----------------------|----------10-11-10----------|
|----12-12-12-12-------|-------12----------12-10----|
|-12----------------12-|-13----------------------13-|
|----------------------|----------------------------|
|----------------------|----------------------------|


                               1.
   E  S S  E  S  S  E  E  Q     E  S  S  E  E  Q   Q
|----------------------------|-------------------------||
|------------------10--------|------------------------o||
|-------9-11-11-12----11-----|--------------------11---||
|-12-12------------------12--|-13----------10-12-------||
|----------------------------|----13-13-13------------o||
|----------------------------|-------------------------||


  2.
   E  S  S  E  E  E  E  Q     E  S  S  E  E  Q   Q
|--------------------------|------------------------|
|--------------------------|------------------------|
|----12-12-12-12-10--------|--------------------11--|
|-------------------13-12--|-13----------10-12------|
|-10-----------------------|----13-13-13------------|
|--------------------------|------------------------|


  W          H.      E  S  S
|----------|-----------------|
|----------|-----------------|
|----------|-----------------|
|----------|-----------------|
|----------|-----------10-12-|
|----------|-----------------|


   E  S  S  E S  S  E  E  E  E    Q.    E  Q.    S  S
|------------------------------|----------------------|
|------------------------------|----------------------|
|-------------9-11-12----10----|----------------------|
|-------10-12---------12----13-|-12----10-12----------|
|-13-13------------------------|----------------10-12-|
|------------------------------|----------------------|


   E  S  S  E S  S  E  E  E  E    Q.    E  H      W
|------------------------------|----------------|------|
|------------------------------|----------------|------|
|-------------9-11-12----10----|----------------|------|
|-------10-12---------12----13-|-12----10-12----|------|
|-13-13------------------------|----------------|------|
|------------------------------|----------------|------|


     E  S  S  E  S  S  E  E  E  S  S    E  S S  E  E  Q.    S  S
||-----------------------------------|---------------------------|
||o----------------------------------|---------------------------|
||--------------------------10-------|---------------------------|
||--12-12-10-12-12-10-12-13----13-12-|-10-10-9-10-12-10----------|
||o----------------------------------|---------------------13-12-|
||-----------------------------------|---------------------------|


   E  S  S  E  S  S  E  E  E  E    E  S  S  E  E  H
|-------------------------------|-----------------------||
|-------------------------------|----------------------o||
|-------------------------------|-----------------------||
|-------------------------10----|----------------10-----||
|-13-13-12-13-13-12-13-13----13-|-12-12-10-12-13-------o||
|-------------------------------|-----------------------||


   E  S  S  E  E  E  E  Q     E  S  S  E  E  Q   Q
|--------------------------|------------------------*|
|--------------------------|------------------------*|
|----12-12-12-12-10--------|--------------------11--*|
|-------------------13-12--|-13----------10-12------*|
|-10-----------------------|----13-13-13------------*|
|--------------------------|------------------------*|


Duration Legend
---------------
W - whole; H - half; Q - quarter; E - 8th; S - 16th; T - 32nd; X - 64th; a - acciaccatura
+ - note tied to previous; . - note dotted; .. - note double dotted
Uncapitalized letters represent notes that are staccato (1/2 duration)
Irregular groupings are notated above the duration line
Duration letters will always appear directly above the note/fret number it represents the
duration for.  Duration letters with no fret number below them represent rests.  Multi-
bar rests are notated in the form Wxn, where n is the number of bars to rest for.  Low
melody durations appear below the staff

Tablature Legend
----------------
 h   - hammer-on
 p   - pull-off
 b   - bend
 pb  - pre-bend
 r   - bend release (if no number after the r, then release immediately)
 /\  - slide into or out of (from/to "nowhere")
 s   - legato slide
 S   - shift slide
  - natural harmonic
[n]  - artificial harmonic
n(n) - tapped harmonic
 ~   - vibrato
 tr  - trill
 T   - tap
 TP  - trem. picking
 PM  - palm muting
\n/  - tremolo bar dip; n = amount to dip
 \n  - tremolo bar down
 n/  - tremolo bar up
/n\  - tremolo bar inverted dip
 =   - hold bend; also acts as connecting device for hammers/pulls
 <>  - volume swell (louder/softer)
 x   - on rhythm slash represents muted slash
 o   - on rhythm slash represents single note slash

Misc Legend
-----------
 |  - bar
||  - double bar
||o - repeat start
o|| - repeat end
*|  - double bar (ending)
 :  - bar (freetime)
 $  - Segno
 &  - Coda
Tempo markers -  = BPM(8/16=s8/s16), where s8 = swing 8ths, s16 = swing 16ths


***************************************************************************************
* Generated using Power Tab Editor by Brad Larsen - http://powertab.guitarnetwork.org *
***************************************************************************************

VGJam Tabs Mission: Impossible - "Embassy Pianist"
Tabs database last modified Tuesday, 01-Nov-2016 19:14:53 UTC.
Copyright © 1999 - 2016 VideoGameJam.com. All rights reserved.