VGJam Tabs Mission: Impossible
Mission: Impossible
"M:I theme" - Guitar tab
Platform(s):Nintendo 64
Tabbed by:HybridDemon
Last modified:2000-12-13
Print it:Original file (.TXT)
Heres the Mission Impossible theme for N64. I recomend 2 overdriven guitars.
Tabbed By Chris Wilke.eBGDAE.Both gtrs play together.just get timing right
and you wil be set
4
4 listen to the game or midi for tempo
gtr 1  
|-------|--|--|--|--|--||-------------||-------------||-------------||-----
|-------|--|--|--|--|--||-------------||-------------||-------------||-----
|-------|--|--|--|--|--||-------------||-------------||-------------||-----
|-------|--|--|--|--|--||-------------||-------------||-------------||-----
|-------|--|--|--|--|--||---------1---||---3---------||-------------||-----
|-------|--|--|--|--|--||---3--3------||------3--3---||---1--2--3---||---3-

-----------||-------------||-------------||-------------||-------------|
-----------||-------------||-------------||-------------||-------------|
-----------||-------------||---0---------||------0------||---------0---|
-----------||-------------||-------------||-------------||-------------|
-1--3------||-------------||---------1---||---3---------||-------------|
-------3---||---3--1--2---||---3--3------||------3--3---||---1--2--3---|

|----------------||-------------||-------------------||-----------------
|----------------||-------------||-------------------||-----------------
|------------0---||-------------||-------------------||-----------------
|----------------||-------------||-------------------||-----------------
|------1--3------||-------------||-------------------||------------1----
|---3--------3---||---3--1--2---||---3--3--3--3--3---||---3--3--3-----3-

-----||----------------------||----------------------||-----------------
-----||----------------------||----------------------||-----------------
-----||----------------------||----------------------||-----------------
-----||----------------------||----------------------||-----------------
-3---||----------------------||----------------------||-----------------
-----||---3--3--3--3--3--3---||---3--3--3--1--3--2---||---3--3--3--3--3-

-----||----------------------||----------------------||-----------------
-----||----------------------||----------------------||-----------------
-----||----------------------||----------------------||-----------------
-----||----------------------||----------------------||-----------------
-----||------------1-----3---||----------------------||-----------------
-3---||---3--3--3-----3------||---3--3--3--3--3--3---||---3--3--3--1--3-

-----||----------------------||----------------------||-----------------
-----||----------------------||----------------------||-----------------
-----||----------------------||----------------------||-----------------
-----||----------------------||----------------------||-----------------
-----||----------------------||------------1-----3---||-----------------
-2---||---3--3--3--3--3--3---||---3--3--3-----3------||---3--3--3--3--3-

-----||----------------------||----------------------||-----------------
-----||----------------------||----------------------||-----------------
-----||----------------------||----------------------||-----------------
-----||----------------------||----------------------||-----------------
-----||----------------------||----------------------||------------1----
-3---||---3--3--3--1--3--2---||---3--3--3--3--3--3---||---3--3--3-----3-

-----||----------------------||----------------------||-----------------
-----||----------------------||----------------------||-----------------
-----||----------------------||----------------------||-----------------
-----||----------------------||----------------------||-----------------
-3---||----------------------||----------------------||-----------------
-----||---3--3--3--3--3--3---||---3--3--3--1--3--2---||---3--3--3--3--3-

-----||----------------------||----------------------||----------------|
-----||----------------------||----------------------||----------------|
-----||----------------------||----------------------||----------------|
-----||----------------------||----------------------||----------------|
-----||------------1-----3---||----------------------||---------1--2---|
-3---||---3--3--3-----3------||---3--3--3--3--3--1---||---3--3---------|
   
|-------------------||----------------------||----------------------||-----
|-------------------||----------------------||----------------------||-----
|-------------------||----------------------||----------------------||-----
|-------------------||------------1-----3---||----------------------||-----
|---3--3--3--3--3---||---3--3--3-----3------||---3--3--3--3--3--3---||---3-
|-------------------||----------------------||----------------------||-----
 
-----------------||----------------------||----------------------||-----
-----------------||----------------------||----------------------||-----
-----------------||----------------------||----------------------||-----
-----------------||----------------------||------------1-----3---||-----
-3--3--1--3--1---||---3--3--3--3--3--3---||---3--3--3-----3------||---3-
-----------------||----------------------||----------------------||-----

-----------------||-------------------||-------------------||-----------
-----------------||-------------------||-------------------||-----------
-----------------||-------------------||-------------------||-----------
-----------------||-------------------||-------------------||-----------
-3--3--3--3--3---||---3--3--3--3--1---||-------------------||-----------
-----------------||-------------------||---3--3--3--3--3---||---3--3--3-
 
-----------||----------------------||----------------------||-----------
-----------||----------------------||----------------------||-----------
-----------||----------------------||----------------------||-----------
-----------||----------------------||----------------------||-----------
-1-----3---||----------------------||----------------------||-----------
----3------||---3--3--3--3--3--3---||---3--3--3--1--3--2---||---3--3--3-

-----------||----------------------||----------------------||-----------
-----------||----------------------||----------------------||-----------
-----------||----------------------||----------------------||-----------
-----------||----------------------||----------------------||-----------
-----------||------------1-----3---||----------------------||-----------
-3--3--3---||---3--3--3-----3------||---3--3--3--3--3--3---||---3--3--3-


-----------||----------------------||----------------------||-----------
-----------||----------------------||----------------------||-----------
-----------||----------------------||----------------------||-----------
-----------||----------------------||----------------------||-----------
-----------||----------------------||------------1-----3---||-----------
-1--3--2---||---3--3--3--3--3--3---||---3--3--3-----3------||---3--3--3-


-----------||----------------------||----------------------||-----------
-----------||----------------------||----------------------||-----------
-----------||----------------------||----------------------||-----------
-----------||----------------------||----------------------||-----------
-----------||----------------------||----------------------||-----------
-3--3--3---||---3--3--3--1--3--2---||---3--3--3--3--3--3---||---3--3--3-


-----------||----------------------||----------------|--|--|--|--|--|--|--|--|--|--|--|--|--|--|--|--|--|--|--|--|--|--|--|--|
-----------||----------------------||----------------|--|--|--|--|--|--|--|--|--|--|--|--|--|--|--|--|--|--|--|--|--|--|--|--|
-----------||----------------------||----------------|--|--|--|--|--|--|--|--|--|--|--|--|--|--|--|--|--|--|--|--|--|--|--|--|
-----------||----------------------||----------------|--|--|--|--|--|--|--|--|--|--|--|--|--|--|--|--|--|--|--|--|--|--|--|--|
-1-----3---||----------------------||---------1--3---|--|--|--|--|--|--|--|--|--|--|--|--|--|--|--|--|--|--|--|--|--|--|--|--|
----3------||---3--3--3--3--3--3---||---3--3---------|--|--|--|--|--|--|--|--|--|--|--|--|--|--|--|--|--|--|--|--|--|--|--|--|


|-------------------------||----------------------------||--------------
|-------------------------||----------------------------||--------------
|-------------------------||----------------------------||--------------
|-------------------------||----------------------------||--------------
|-------------------------||------------------1-----3---||--------------
|---3--3--3--3--3--3--3---||---3--3--3--3--3-----3------||---3--3--3--3-

   
--------------||----------------------------||----------------------------|
--------------||----------------------------||----------------------------|
--------------||----------------------------||----------------------------|
--------------||----------------------------||----------------------------|
--------------||----------------------------||----------------------------|
-3--3--3--3---||---3--3--3--3--3--1--3--2---||---3--3--3--3--3--3--3--3---|
   

|----------------------------||----------------------------||-----------
|----------------------------||----------------------------||-----------
|----------------------------||----------------------------||-----------
|----------------------------||----------------------------||-----------
|------------------1-----3---||----------------------------||-----------
|---3--3--3--3--3-----3------||---3--3--3--3--3--3--3--3---||---3--3--3-


-----------------||----------------------||----------------------||-----
-----------------||----------------------||----------------------||-----
-----------------||----------------------||----------------------||-----
-----------------||----------------------||----------------------||-----
-----------------||----------------------||------------1-----3---||-----
-3--3--1--3--2---||---3--3--3--3--3--3---||---3--3--3-----3------||---3-


-----------------||----------------------||----------------------||-----
-----------------||----------------------||----------------------||-----
-----------------||----------------------||----------------------||-----
-----------------||----------------------||----------------------||-----
-----------------||----------------------||----------------------||-----
-3--3--3--3--3---||---3--3--3--1--3--2---||---3--3--3--3--3--3---||---3-


-----------------||----------------------||----------------------||-----
-----------------||----------------------||----------------------||-----
-----------------||----------------------||----------------------||-----
-----------------||----------------------||----------------------||-----
-------1-----3---||----------------------||----------------------||-----
-3--3-----3------||---3--3--3--3--3--3---||---3--3--3--1--3--2---||---3-


-----------------||----------------------||----------------------||-----
-----------------||----------------------||----------------------||-----
-----------------||----------------------||----------------------||-----
-----------------||----------------------||----------------------||-----
-----------------||------------1-----3---||----------------------||-----
-3--3--3--3--3---||---3--3--3-----3------||---3--3--3--3--3--3---||---3-


-----------------||----------------------||----------------------||-----
-----------------||----------------------||----------------------||-----
-----------------||----------------------||----------------------||-----
-----------------||----------------------||----------------------||-----
-----------------||----------------------||------------1-----3---||-----
-3--3--1--3--2---||---3--3--3--3--3--3---||---3--3--3-----3------||---3-


-----------------||----------------||-------------------||--------------
-----------------||----------------||-------------------||--------------
-----------------||----------------||-------------------||--------------
-----------------||----------------||-------------------||------------1-
-----------------||---------1--2---||---3--3--3--3--3---||---3--3--3----
-3--3--3--3--1---||---3--3---------||-------------------||--------------


--------||----------------------||----------------------||--------------
--------||----------------------||----------------------||--------------
--------||----------------------||----------------------||--------------
----3---||----------------------||----------------------||--------------
-3------||---3--3--3--3--3--3---||---3--3--3--1--3--1---||---3--3--3--3-
--------||----------------------||----------------------||--------------


--------||----------------------||----------------------||--------------
--------||----------------------||----------------------||--------------
--------||----------------------||----------------------||--------------
--------||------------1-----3---||----------------------||--------------
-3--3---||---3--3--3-----3------||---3--3--3--3--3--3---||---3--3--3--3-
--------||----------------------||----------------------||--------------


-----||-------------------||----------------------||----------------------|
-----||-------------------||----------------------||----------------------|
-----||-------------------||----------------------||----------------------|
-----||-------------------||----------------------||----------------------|
-1---||-------------------||------------1-----3---||----------------------|
-----||---3--3--3--3--3---||---3--3--3-----3------||---3--3--3--3--3--3---|


|----------------------||----------------------||----------------------|
|----------------------||----------------------||----------------------|
|----------------------||----------------------||----------------------|
|----------------------||----------------------||----------------------|
|----------------------||----------------------||------------1-----3---|
|---3--3--3--1--3--2---||---3--3--3--3--3--3---||---3--3--3-----3------|


|----------------------||----------------------||----------------------|
|----------------------||----------------------||----------------------|
|----------------------||----------------------||----------------------|
|----------------------||----------------------||----------------------|
|----------------------||----------------------||----------------------|
|---3--3--3--3--3--3---||---3--3--3--1--3--2---||---3--3--3--3--3--3---|


|----------------------||----------------------||----------------------|
|----------------------||----------------------||----------------------|
|----------------------||----------------------||----------------------|
|----------------------||----------------------||----------------------|
|------------1-----3---||----------------------||----------------------|
|---3--3--3-----3------||---3--3--3--3--3--3---||---3--3--3--1--3--2---|


|----------------------||----------------------||----------------------|
|----------------------||----------------------||----------------------|
|----------------------||----------------------||----------------------|
|----------------------||----------------------||----------------------|
|----------------------||------------1-----3---||----------------------|
|---3--3--3--3--3--3---||---3--3--3-----3------||---3--3--3--3--3--3---|


|----------------------||----------------------||----------------------|
|----------------------||----------------------||----------------------|
|----------------------||----------------------||----------------------|
|----------------------||----------------------||----------------------|
|----------------------||----------------------||------------1-----3---|
|---3--3--3--1--3--2---||---3--3--3--3--3--3---||---3--3--3-----3------|


|----------------------||----------------------||----------------------|
|----------------------||----------------------||----------------------|
|----------------------||----------------------||----------------------|
|----------------------||----------------------||----------------------|
|----------------------||----------------------||----------------------|
|---3--3--3--3--3--3---||---3--3--3--1--3--2---||---3--3--3--3--3--3---|


|----------------------||----------------------||-------------------||-----
|----------------------||----------------------||-------------------||-----
|----------------------||----------------------||-------------------||-----
|----------------------||----------------------||-------------------||-----
|------------1-----3---||----------------------||------------1--2---||---3-
|---3--3--3-----3------||---3--3--3--3--3--1---||---3--3--3---------||-----


--------------||----------------------||----------------------||--------
--------------||----------------------||----------------------||--------
--------------||----------------------||----------------------||--------
--------------||------------1-----3---||----------------------||--------
-3--3--3--3---||---3--3--3-----3------||---3--3--3--3--3--3---||---3--3-
--------------||----------------------||----------------------||--------


--------------||----------------------||----------------------||--------
--------------||----------------------||----------------------||--------
--------------||----------------------||----------------------||--------
--------------||----------------------||------------1-----3---||--------
-3--1--3--1---||---3--3--3--3--3--3---||---3--3--3-----3------||---3--3-
--------------||----------------------||----------------------||--------


--------------||-------------------||-------------------||--------------
--------------||-------------------||-------------------||--------------
--------------||-------------------||-------------------||--------------
--------------||-------------------||-------------------||--------------
-3--3--3--3---||---3--3--3--3--1---||-------------------||------------1-
--------------||-------------------||---3--3--3--3--3---||---3--3--3----


--------||----------------------||----------------------||--------------
--------||----------------------||----------------------||--------------
--------||----------------------||----------------------||--------------
--------||----------------------||----------------------||--------------
----3---||----------------------||----------------------||--------------
-3------||---3--3--3--3--3--3---||---3--3--3--1--3--2---||---3--3--3--3-


--------||----------------------||----------------------||--------------
--------||----------------------||----------------------||--------------
--------||----------------------||----------------------||--------------
--------||----------------------||----------------------||--------------
--------||------------1-----3---||----------------------||------------1-
-3--3---||---3--3--3-----3------||---3--3--3--3--3--3---||---3--3--3----


--------||-------------------------||----------|
--------||-------------------------||----------|
--------||-------------------------||----------|
--------||-------------------------||----------|
----3---||---------------1-----3---||------0---|
-3------||---3--3--3--3-----3------||---3------|

Gtr.2
|-------|--|--||---10-11-10-11-10-11--||---10-11-10-11-10-11-10-11-10-11
|-------|--|--||----------------------||--------------------------------
|-------|--|--||----------------------||--------------------------------
|-------|--|--||----------------------||--------------------------------
|-------|--|--||----------------------||--------------------------------
|-------|--|--||----------------------||--------------------------------


-10-11-10-11-10-11-10-11-10-11-10-11-10-11--||---10-11-10-11-10-11-10-11
--------------------------------------------||--------------------------
--------------------------------------------||--------------------------
--------------------------------------------||--------------------------
--------------------------------------------||--------------------------
--------------------------------------------||--------------------------


-10-11-10-11-10-11-10-11-10-11-10-11-10-11-10-11--||---10-11-11-12-13-14
--------------------------------------------------||--------------------
--------------------------------------------------||--------------------
--------------------------------------------------||--------------------
--------------------------------------------------||--------------------
--------------------------------------------------||--------------------


-15--|--|--|--|--|--|--|--|--|--|--|--|--|--||---18--------|--||---18---
-----|--|--|--|--|--|--|--|--|--|--|--|--|--||------20-----|--||------20
-----|--|--|--|--|--|--|--|--|--|--|--|--|--||---------19--|--||--------
-----|--|--|--|--|--|--|--|--|--|--|--|--|--||-------------|--||--------
-----|--|--|--|--|--|--|--|--|--|--|--|--|--||-------------|--||--------
-----|--|--|--|--|--|--|--|--|--|--|--|--|--||-------------|--||--------


-----|--||---18--------|--||----------|--||-------------|--||-------------|--|
-----|--||------20-----|--||----------|--||-------------|--||-------------|--|
-18--|--||-------------|--||----------|--||---------23--|--||---------22--|--|
-----|--||---------22--|--||---20-22--|--||---20--------|--||-------------|--|
-----|--||-------------|--||----------|--||------22-----|--||---25-22-----|--|
-----|--||-------------|--||----------|--||-------------|--||-------------|--|


|-------------|--||----------|--||---23--------|--||---23--------|--||---23
|-------------|--||----------|--||------25-----|--||------25-----|--||-----
|---------21--|--||---20-19--|--||---------24--|--||---------23--|--||-----
|---20--------|--||----------|--||-------------|--||-------------|--||-----
|------22-----|--||----------|--||-------------|--||-------------|--||-----
|-------------|--||----------|--||-------------|--||-------------|--||-----


--------|--||----------|--||-------------|--||-------------|--||--------
-25-----|--||------18--|--||-------------|--||-------------|--||--------
----22--|--||---20-----|--||---------23--|--||---------22--|--||--------
--------|--||----------|--||---20--------|--||-------------|--||---20---
--------|--||----------|--||------22-----|--||---25-22-----|--||------22
--------|--||----------|--||-------------|--||-------------|--||--------


-----|--||----------|--||---18--------|--||---18--------|--||---18--------|--|
-----|--||----------|--||------20-----|--||------20-----|--||------20-----|--|
-21--|--||---20-19--|--||---------19--|--||---------18--|--||-------------|--|
-----|--||----------|--||-------------|--||-------------|--||---------22--|--|
-----|--||----------|--||-------------|--||-------------|--||-------------|--|
-----|--||----------|--||-------------|--||-------------|--||-------------|--|


|----------|--|--|--|--|--|--|--|--|--|--|--|--|--|--|--|--|--|--|--|--|--|--|--|--|--|--|--|--|--|--|--|--|--|--|--|--|--|--|--|--|--|--|--|--|--|--|--|--|--|--|--|--|--|--|--|--|--|--|--|--|--|--|--|--|--|
|----------|--|--|--|--|--|--|--|--|--|--|--|--|--|--|--|--|--|--|--|--|--|--|--|--|--|--|--|--|--|--|--|--|--|--|--|--|--|--|--|--|--|--|--|--|--|--|--|--|--|--|--|--|--|--|--|--|--|--|--|--|--|--|--|--|--|
|----------|--|--|--|--|--|--|--|--|--|--|--|--|--|--|--|--|--|--|--|--|--|--|--|--|--|--|--|--|--|--|--|--|--|--|--|--|--|--|--|--|--|--|--|--|--|--|--|--|--|--|--|--|--|--|--|--|--|--|--|--|--|--|--|--|--|
|---20-22--|--|--|--|--|--|--|--|--|--|--|--|--|--|--|--|--|--|--|--|--|--|--|--|--|--|--|--|--|--|--|--|--|--|--|--|--|--|--|--|--|--|--|--|--|--|--|--|--|--|--|--|--|--|--|--|--|--|--|--|--|--|--|--|--|--|
|----------|--|--|--|--|--|--|--|--|--|--|--|--|--|--|--|--|--|--|--|--|--|--|--|--|--|--|--|--|--|--|--|--|--|--|--|--|--|--|--|--|--|--|--|--|--|--|--|--|--|--|--|--|--|--|--|--|--|--|--|--|--|--|--|--|--|
|----------|--|--|--|--|--|--|--|--|--|--|--|--|--|--|--|--|--|--|--|--|--|--|--|--|--|--|--|--|--|--|--|--|--|--|--|--|--|--|--|--|--|--|--|--|--|--|--|--|--|--|--|--|--|--|--|--|--|--|--|--|--|--|--|--|--|


|-------------|--||-------------|--||-------------|--||----------|--||-----
|---23--------|--||---23--------|--||---23--------|--||----------|--||-----
|------24-----|--||------24-----|--||------24-----|--||----------|--||-----
|---------24--|--||---------23--|--||---------22--|--||---20-22--|--||---20
|-------------|--||-------------|--||-------------|--||----------|--||-----
|-------------|--||-------------|--||-------------|--||----------|--||-----


--------|--||-------------|--||-------------|--||----------|--||---23---
--------|--||-------------|--||-------------|--||----------|--||------25
----23--|--||---------22--|--||---------21--|--||---20-19--|--||--------
--------|--||-------------|--||---20--------|--||----------|--||--------
-22-----|--||---25-22-----|--||------22-----|--||----------|--||--------
--------|--||-------------|--||-------------|--||----------|--||--------


-----|--||---23--------|--||---23--------|--||----------|--||-------------|--|
-----|--||------25-----|--||------25-----|--||------18--|--||-------------|--|
-24--|--||---------23--|--||---------22--|--||---20-----|--||---------23--|--|
-----|--||-------------|--||-------------|--||----------|--||---20--------|--|
-----|--||-------------|--||-------------|--||----------|--||------22-----|--|
-----|--||-------------|--||-------------|--||----------|--||-------------|--|


|-------------|--||-------------|--||----------|
|-------------|--||-------------|--||----------|
|---------22--|--||---------21--|--||---20-19--|
|-------------|--||---20--------|--||----------|
|---25-22-----|--||------22-----|--||----------|
|-------------|--||-------------|--||----------|

Limp Bizket's version sux
VGJam Tabs Mission: Impossible - "M:I theme"
Tabs database last modified Monday, 21-Jul-2014 21:11:05 CDT.
Copyright © 1999 - 2014 VideoGameJam.com. All rights reserved.