VGJam Tabs The New Tetris
The New Tetris
"Dvie" - Guitar tab
Platform(s):Nintendo 64
Composed by:Neil D. Voss
Tabbed by:Deezer
Last modified:2008-02-29
Date added:2008-03-02
Print it:Original file (.TXT)
#----------------------------------PLEASE NOTE---------------------------------#
#This file is the author's own work and represents their interpretation of the #
#song. You may only use this file for private study, scholarship, or research. #
#------------------------------------------------------------------------------#

The New Tetris (Nintendo 64)
"Dvie"

Originally composed by: Neil D. Voss
------------------------------------------------------------------------------
Tabbed by: Deezer (deezer AT videogamejam DOT com)
For http://www.videogamejam.com
------------------------------------------------------------------------------

Standard tuning - (low to high) EADGBe

Original piece sounds about 1/4 step sharp.


||--------------10--12----10----|-------------10--12----10----|
||----------11------------------|---------10------------------|
||------12----------------------|-----10----------------------|
||------------------------------|-----------------------------|
||--10--------------------------|--8--------------------------|
||------------------------------|-----------------------------|

  ------------------12--------------|------17--------------------||
  --------------14----------12--14--|--15------------------------||
  ------12--14----------14----------|---------------14-----------||
  ----------------------------------|-------------------15-------||
  --12------------------------------|----------------------------||
  ----------------------------------|----------------------------||


Sometimes the last three notes aren't played:

||--------------10--12----10----|-------------10--12----10----|
||----------11------------------|---------10------------------|
||------12----------------------|-----10----------------------|
||------------------------------|-----------------------------|
||--10--------------------------|--8--------------------------|
||------------------------------|-----------------------------|

  ------------------12--------------|----------------------------||
  --------------14----------12--14--|--15------------------------||
  ------12--14----------14----------|----------------------------||
  ----------------------------------|----------------------------||
  --12------------------------------|----------------------------||
  ----------------------------------|----------------------------||


Last modified: 02/29/2008

VGJam Tabs The New Tetris - "Dvie"
Tabs database last modified Tuesday, 01-Nov-2016 19:14:53 UTC.
Copyright © 1999 - 2016 VideoGameJam.com. All rights reserved.