VGJam Tabs The New Tetris
The New Tetris
"Greek" - Guitar tab
Platform(s):Nintendo 64
Composed by:Neil D. Voss
Tabbed by:Deezer
Last modified:2008-02-29
Date added:2008-03-02
Print it:Original file (.TXT)
#----------------------------------PLEASE NOTE---------------------------------#
#This file is the author's own work and represents their interpretation of the #
#song. You may only use this file for private study, scholarship, or research. #
#------------------------------------------------------------------------------#

The New Tetris (Nintendo 64)
"Greek"

Originally composed by: Neil D. Voss
------------------------------------------------------------------------------
Tabbed by: Deezer (deezer AT videogamejam DOT com)
For http://www.videogamejam.com
------------------------------------------------------------------------------

Standard tuning - (low to high) EADGBe

Original piece sounds about 1/4 step sharp.


||----------17--------------|----------17--------------|
||--17----------17----------|--17----------17----------|
||--------------------15----|--------------------15----|
||--------------------------|--------------------------|
||--------------------------|--------------------------|
||--------------------------|--------------------------|

  --------------------------|--------------------------||
  --15------17--15----------|--15------17--15----------||
  --------------------14----|--------------------14----||
  --------------------------|--------------------------||
  --------------------------|--------------------------||
  --------------------------|--------------------------||

Repeat a lot.


Last modified: 02/29/2008

VGJam Tabs The New Tetris - "Greek"
Tabs database last modified Tuesday, 01-Nov-2016 19:14:53 UTC.
Copyright © 1999 - 2016 VideoGameJam.com. All rights reserved.