VGJam Tabs The New Tetris
The New Tetris
"Theme (title)" - Guitar tab
Platform(s):Nintendo 64
Composed by:Neil D. Voss
Tabbed by:Deezer
Last modified:2008-03-01
Print it:Original file (.TXT)
Hear it:MIDI file
#----------------------------------PLEASE NOTE---------------------------------#
#This file is the author's own work and represents their interpretation of the #
#song. You may only use this file for private study, scholarship, or research. #
#------------------------------------------------------------------------------#

The New Tetris (Nintendo 64)
"Title theme"

Originally composed by: Neil D. Voss
------------------------------------------------------------------------------
Tabbed by: Deezer (deezer AT videogamejam DOT com)
For http://www.videogamejam.com
------------------------------------------------------------------------------

Standard tuning - (low to high) EADGBe

Original piece sounds about 1/4 step sharp.

Symbols used:
 / = slide up


Part 1:
=======

----------------------------------------10--
--13----10--11-/13----11--10--------11------
------------------------------12------------
--------------------------------------------
--------------------------------------------
--------------------------------------------

------------------------------10-------------------
--13--11--10----10--11--13---------11--------------
-----------------------------------------12----12--
---------------------------------------------------
---------------------------------------------------
---------------------------------------------------

Part 2:
=======

----11----13--13/15----13--11--10--------10--10----------------------------
-------------------------------------11----------13--11--10----10--11--13--
---------------------------------------------------------------------------
---------------------------------------------------------------------------
---------------------------------------------------------------------------
---------------------------------------------------------------------------

--10--------------------
--------11--------------
--------------12----12--
------------------------
------------------------
------------------------

Those are played in order a few times, then other "instruments" come in and
Voss mixes up the order of the parts. Shouldn't be too hard to figure out if
you listen to the song.


Revisions:
 03/01/2008 - Slide added.
 04/26/2000 - First draft.

VGJam Tabs The New Tetris - "Theme (title)"
Tabs database last modified Tuesday, 01-Nov-2016 19:14:53 UTC.
Copyright © 1999 - 2016 VideoGameJam.com. All rights reserved.