VGJam Tabs Perfect Dark
Perfect Dark
"Institute Menu" - Guitar tab
Platform(s):Nintendo 64
Composed by:Grant Kirkhope
Soundtrack:Perfect Dark OST (track D1-02)
Tabbed by:Thomas McManus
Last modified:2000-12-06
Print it:Original file (.TXT)
Song: Institute Menu
Game: Perfect Dark
Composed by: Grant "play that music maestro" Kirkhope and Martin "sound geezer" Penny
Tabbed by: Thomas McManus (tom0015@hotmail.com)


The bass and guitar don't line up exactly, because it's really hard to
match them up in tab (at least the way I write it :)). Just listen to 
it and you'll pick up the rhythm.

~ = hold note, let ring, etc.

e------------------------------|
B------------------------------|\
G-----17----17-----------------| \
D-----------------16----16-----|  \
A--15----15--------------------|   \
E--------------14----14--------|   play
|                              |    x7
G------------------------------|  /
D------------------------------| /
A--3~~~~~~~~~~-----------------|/
E--------------2~~~~~~~~~~~----|

e------------------------8~-9-8~~~~---------------------9-8~~-----|
B-6~~~~-8~~~~~~~~~~~-9~~------------6~~~~~-8~~~~~~~~~-9-----------|
G-----------------------------------------------------------------|
D-----------------------------------------------------------------|
A-----------------------------------------------------------------|
E-----------------------------------------------------------------|
|                                                                 |
G-----------------------------------------------------------------|
D-----------------------------------------------------------------|
A-3~~~~--------3~~~~--------3~~~~--------3~~~~--------3~~~~-------|
E-------2~~~~--------2~~~~--------2~~~~--------2~~~~--------2~~~~-|

e-7~~~------7~------9-8~-7~~-8-7~~--------------------------------|
B------10~~----6~-8---------------10~~~--1~~~~-3~~~~~~~~~~-4~~~~--|
G-----------------------------------------------------------------|
D-----------------------------------------------------------------|
A-----------------------------------------------------------------|
E-----------------------------------------------------------------|
|                                                                 |
G-----------------------------------------------------------------|
D-----------------------------------------------------------------|
A-3~~~~--------3~~~~--------3~~~~--------3~~~~--------3~~~~-------|
E-------2~~~~--------2~~~~--------2~~~~--------2~~~~--------2~~~~-|

e-3-4-3~~~~-------------------4-3~-2~~~~-------2~~------4-3~-2~~~-|
B-----------1~~~~~~-3~~~~~~-4------------5~~~~-----1~-3-----------|
G-----------------------------------------------------------------|
D-----------------------------------------------------------------|
A-----------------------------------------------------------------|
E-----------------------------------------------------------------|
|                                                                 |
G-----------------------------------------------------------------|
D-----------------------------------------------------------------|
A-3~~~~--------3~~~~--------3~~~~--------3~~~~--------3~~~~-------|
E-------2~~~~--------2~~~~--------2~~~~--------2~~~~--------2~~~~-|

e-3-2~~~----------------|
B-------5~~~~~~---------|
G-----------------------|
D-----------------------|
A-----------------------|
E-----------------------|
|                       |
G-----------------------|
D-----------------------|
A-3~~~~-----------------|
E-------2~~~~-----------|

Repeat as much as desired.
VGJam Tabs Perfect Dark - "Institute Menu"
Tabs database last modified Tuesday, 01-Nov-2016 19:14:53 UTC.
Copyright © 1999 - 2016 VideoGameJam.com. All rights reserved.