VGJam Tabs Perfect Dark
Perfect Dark
"Institute Menu" - Guitar tab
Platform(s):Nintendo 64
Composed by:Grant Kirkhope
Soundtrack:Perfect Dark OST (track D1-02)
Tabbed by:badtom
Last modified:2000-08-14
Print it:Original file (.TXT)
Perfect Dark - Main Menu
game by Rare
song by Grant Kirkhope (with help?)
transcribed by badtom@ignmail.com


Rythmn riff played throughout:

A-----10-----10---11-11-11------------10-----10---9-9-9-----------
E--8------8----------------(x4)----8------8-------------(x4)------

Bass riff played thoughout (or most of the time, unsure):

E--8---2---8---2--------------------------------------------------


Lead riff:

e-------------------------------------------------------------------------------
B-------------------------------------------------------------------------------
G-------------------------17-18-17----------------------17-H-18-P-17-16--14--16-
D--15---17---17-H-18--18------------15---15--17-17->18--------------------------

(continued immediately)
e-------13----------------------------------------------------------------------
B-------------------------------------------------------------------------------
G----14----17--16--16-H-17-P-16--14---------------------------------------------
D-15----------------------------------------------------------------------------

(now just move up a string, the fingering is the same as before):
B-------------------------------------------------------------------------------
G-------------------------------------------------------------------------------
D-------------------------17-18-17----------------------17-H-18-P-17-16--14--16-
A--15---17---17-H-18--18------------15---15--17-17->18--------------------------

(continued immediately)
B-------13----------------------------------------------------------------------
G-------------------------------------------------------------------------------
D----14----17--16--16-H-17-P-16--14---------------------------------------------
A-15----------------------------------------------------------------------------


14 August 2000 -- badtom
VGJam Tabs Perfect Dark - "Institute Menu"
Tabs database last modified Tuesday, 01-Nov-2016 19:14:53 UTC.
Copyright © 1999 - 2016 VideoGameJam.com. All rights reserved.