VGJam Tabs Perfect Dark
Perfect Dark
"Enter the Dark" - Guitar tab
Platform(s):Nintendo 64
Composed by:Grant Kirkhope
Soundtrack:Perfect Dark OST (track D1-03)
Tabbed by:Thomas McManus
Last modified:2000-12-06
Print it:Original file (.TXT)
Song: Enter the Dark
Game: Perfect Dark
Composed by: Grant "play that music maestro" Kirkhope and Martin "sound geezer" Penny
Tabbed by: Thomas McManus (tom0015@hotmail.com)

 clean
e---------------------------------------------------------------
B-1~~~~---------------------------------------------------------
G-------3~~~~-----------------------3~~~~-1~~~~-----------------
D-------------3~~~~~-5~~~~~~~~~~----------------------3~~~~~~~~-
A-----------------------------------------------3~~~~-----------
E---------------------------------------------------------------

After the nice intro, it gets weird. The top part is guitar 2, with 
a bunch of weird effects so it'll sound like that techno noise that
fades in and out. You play many, many more notes than shown here - 
you should pick constantly. To save space each line is roughly 10
seconds of playing. The bottom part is guitar one, from above.

  0                           ~5                               ~10
e-----------------------------------------------------------------|
B-----------------------------------------------------------------|
G-5-5-5-5-5-5-5-5-5-5-5-5-5-5-5-5-5-5-5-5-5-5-5-5-5-5-5-5-5-5-5-5-|
D-----------------------------------------------------------------|
A-----------------------------------------------------------------|
E-----------------------------------------------------------------|
|     slow slide                                                  |
e-----------------------------------------------------------------|
B-----------------------------------------------------------------|
G-15\\\\\\\\\\\\\\\\\\--------------------------------------------|
D-----------------------------------------------------------------|
A-----------------------------------------------------------------|
E-----------------------------------------------------------------|

  0                           ~5                               ~10
e-----------------------------------------------------------------|
B-----------------------------------------------------------------|
G-5-5-5-5-5-5-5-5-5-5-5-5-5-5-5-5-5-5-5-5-5-5-5-5-5-5-5-5-5-5-5-5-|
D-----------------------------------------------------------------|
A-----------------------------------------------------------------|
E-----------------------------------------------------------------|
|                                  stattaco strings                        |
e-----------------------------------------------------------------|
B----------------------------------1--1--1--1-2---1--1--1------1--|
G---------------------------------------------------------3-------|
D-----------------------------------------------------------------|
A-----------------------------------------------------------------|
E-----------------------------------------------------------------|

  0                           ~5                               ~10
e-----------------------------------------------------------------|
B-----------------------------------------------------------------|
G-5-5-5-5-5-5-5-5-5-5-5-5-5-5-5-5-5-5-5-5-5-5-5-5-5-5-5-5-5-5-5-5-|
D-----------------------------------------------------------------|
A-----------------------------------------------------------------|
E-----------------------------------------------------------------|
|                                                     slow slide  |
e-----------------------------------------------------------------|
B-1--1-2---1--1--1--1------1--1--1--1-2---1--1--1-----------------|
G---------------------3---------------------------3----15\\\\\\\\-|
D-----------------------------------------------------------------|
A-----------------------------------------------------------------|
E-----------------------------------------------------------------|

  0                           ~5                               ~10
e-----------------------------------------------------------------|
B-----------------------------------------------------------------|
G-5-5-5-5-5-5-5-5-5-5-5-5-5-5-5-5-5-5-5-5-5-5-5-5-5-5-5-5-5-5-5-5-|
D-----------------------------------------------------------------|
A-----------------------------------------------------------------|
E-----------------------------------------------------------------|
|                                                                 |
e-----------------------------------------------------------------|
B-----------------------------------------------------------------|
G-\\3-------------------------------------------------------------|
D-----------------------------------------------------------------|
A-----------------------------------------------------------------|
E-----------------------------------------------------------------|

  0                           ~5          
e-----------------------------------------------|
B-----------------------------------------------|
G-5-5-5-5-5-5-5-5-5-5-5-5-5-5-5-5-5-5-5-5-5-----|
D-----------------------------------------------|
A-----------------------------------------------|
E-----------------------------------------------|
|              another slow slide               |
e-----------------------------------------------|
B-----------------------------------------------|
G-------------15\\\\\\\\\\\\\\\\\\\\\\\3-h5-----|
D-----------------------------------------------|
A-----------------------------------------------|
E-----------------------------------------------|

VGJam Tabs Perfect Dark - "Enter the Dark"
Tabs database last modified Tuesday, 01-Nov-2016 19:14:53 UTC.
Copyright © 1999 - 2016 VideoGameJam.com. All rights reserved.