VGJam Tabs Perfect Dark
Perfect Dark
"Chicago: Stealth" - Guitar tab
Platform(s):Nintendo 64
Composed by:Grant Kirkhope
Soundtrack:Perfect Dark OST (track D1-08)
Tabbed by:Thomas McManus
Last modified:2000-12-13
Print it:Original file (.TXT)
Hear it:MIDI file
Song: Chicago: Stealth
Game: Perfect Dark
Composed by: Grant "play that music maestro" Kirkhope and Martin "sound geezer" Penny
Tabbed by: Thomas McManus (tom0015@hotmail.com)


  Dm               Dm               Bb               Bb
e-----------5----------------5--------------0-1-0------------0-1-0----
B-------6-8---8-6--------6-8---8-6--------3-------3--------3-------3--
G-----7----------------7----------------3----------------3------------
D---7----------------7----------------3----------------3--------------
A-5----------------5----------------1----------------1----------------
E---------------------------------------------------------------------

That riff plays 8 times:
1: alone
2: violins play the root note (D or Bb), stays for rest of repetitions
3: drums in, stays for rest of repetitions
4: lead
5: lead
6: alone (accompianied by drums and violins)
7: lead
8: lead II

Lead:
e---------------------5~~~~~--------------------------------------
B-------5~-6~~~-8~~~~--------6~-8~~~-5~~~-------------------------
G--8~~~-----------------------------------8~~~~~~-----------------
D-----------------------------------------------------------------
A-----------------------------------------------------------------
E-----------------------------------------------------------------

Lead II:
e---------------------5~~~~~---------8~~~-10~~--------------------
B-------5~-6~~~-8~~~~--------6~-8~~~------------------------------
G--8~~~-----------------------------------------------------------
D-----------------------------------------------------------------
A-----------------------------------------------------------------
E-----------------------------------------------------------------

Then comes this part. I just tabbed the bassier part, not the crazy 
violin runs. Listen closely and you'll hear this behind them.

e-------------------------------------------------------------------
B-3~~---------3~~---------------------------------------------------
G-----2-----2-----2-------2-3~~-------------------------2-3~~-2-----
D-------0~~---------0-2-3-------3----------------3~-5~~---------5~~-
A---------------------------------4~~-3-1~-3~-4~--------------------
E-------------------------------------------------------------------

e-----------------------------------------------------------------
B--------------------------------3~~---------3~~------------------
G------------------------------------2-----2-----2-------2-3~~----
D---5~-3-2~~---------------------------0~~---------0-2-3-------3--
A-5----------2~~--------------------------------------------------
E----------------3-2~~-0-2-3~~------------------------------------

e-----------------------------------------------------------------
B-----------------------------------------------------------------
G-----------------------2-3~~-2-----------------------------------
D----------------3~-5~~---------5~~---5~-3-2~~--------------------
A-4~~-3-1~-3~-4~-------------------5----------2~~-----------------
E-------------------------------------------------3-2~~-0-2-3~~---

Then finish off with each of these notes hanging for a measure 
(four beats of the handbell) and fade out (or start over :)
e--------------------------------------------------
B--------------------------------------------------
G--------------------------------------------------
D-0~~~~~~~~~---------------------------------------
A------------1~~~~~~~~~----------------------------
E-----------------------3~~~~~~~~~-0~~~~~~~~~------

VGJam Tabs Perfect Dark - "Chicago: Stealth"
Tabs database last modified Thursday, 17-Apr-2014 20:21:29 CDT.
Copyright © 1999 - 2014 VideoGameJam.com. All rights reserved.